Korn - Souvennir Chords & Tabs

 

Souvennir Chords & Tabs

Korn Chords & Tabs

Version: 1 Type: Tab

Souvennir Tab

   
KoRn - Souvenir - See You On The Other Side

Tabbed by Elvisz (elvisz@kornkids.com)
                 (elvisz84@yahoo.com)

Tuning : 7 String Tuned Low to High (A D G C F A D)

Vocal: Jonathan Houseman Davis 'Hiv'
Guitar: James Randal Shaffer 'Munky'
Bass: Reginald Arvizu 'Fieldy'
Drums: David Silveria

Intro:
d|---------------------------------|
a|---------------------------------|
F|---------------------------------|
C|---------------------------------|
G|---------------------------------|
D|---------------------------------|
A|-5~~--533-633-53-5~~--533-633-53-|
   .    ... ... .. .    ... ... ..  .palm mute

Pre-Verse:
d|------------------------|------------------------|
a|------8-8-8-8-----10-11-|------8-8-8-8-----5--\3-|
F|------------------------|------------------------|
C|------------------------|------------------------|
G|-7-7----------7-7-------|-7-7----------7-7-------|
D|-7-7----------7-7-------|-7-7----------7-7-------|
A|-5-5----------5-5-------|-5-5----------5-5-------|

d|------------------------|------------------------|
a|------------------------|------------------------|
F|------------------------|------------------------|
C|------------------------|------------------------|
G|-7-7--10~~~~-7-7--12-13-|-7-7--10~~~~-7-7--7--\5-|
D|-7-7--10~~~~-7-7--12-13-|-7-7--10~~~~-7-7--7--\5-|
A|-5-5-- 8~~~~-5-5--10-11-|-5-5-- 8~~~~-5-5--5--\3-|

Verse:
d|---------------------------------|
a|---------------------------------|
F|---------------------------------|
C|---------------------------------|
G|---------------------------------|
D|---------------------------------|
A|-5~~--533-633-53-5~~--533-633-53-|
   .    ... ... .. .    ... ... ..  .palm mute

Pre-Chorus:
d|-----------------------|
a|-----------------------|
F|-----------------------|
C|-----------------------|
G|-----------------------|
D|-----------------------|
A|-5\\4-4\\3-3\\2-2-2345-|

d|-------|-------|-------|---------|
a|-------|-------|-------|---------|
F|-14~~~~|-14~~~~|-13~~~~|-13/14~~-|	(chorus or flanger pedal)
C|-------|-------|-------|---------|
G|-------|-------|-------|---------|
D|-------|-------|-------|---------|
A|-------|-------|-------|---------|

Chorus:
d|------------------------|------------------------|
a|------8-8-8-8-----10-11-|------8-8-8-8-----5--\3-|
F|------------------------|------------------------|
C|------------------------|------------------------|
G|-7-7----------7-7-------|-7-7----------7-7-------|
D|-7-7----------7-7-------|-7-7----------7-7-------|
A|-5-5----------5-5-------|-5-5----------5-5-------|

d|------------------------|------------------------|
a|------------------------|------------------------|
F|------------------------|------------------------|
C|------------------------|------------------------|
G|-7-7--10~~~~-7-7--12-13-|-7-7--10~~~~-7-7--7--\5-|
D|-7-7--10~~~~-7-7--12-13-|-7-7--10~~~~-7-7--7--\5-|
A|-5-5-- 8~~~~-5-5--10-11-|-5-5-- 8~~~~-5-5--5--\3-|

Verse:
d|---------------------------------|
a|---------------------------------|
F|---------------------------------|
C|---------------------------------|
G|---------------------------------|
D|---------------------------------|
A|-5~~--533-633-53-5~~--533-633-53-|
   .    ... ... .. .    ... ... ..  .palm mute
[ Tab from: http://www.guitartabs.cc/tabs/k/korn/souvennir_tab.html ]
Pre-Chorus:
d|-----------------------|
a|-----------------------|
F|-----------------------|
C|-----------------------|
G|-----------------------|
D|-----------------------|
A|-5\\4-4\\3-3\\2-2-2345-|

d|-------|-------|-------|---------|
a|-------|-------|-------|---------|
F|-14~~~~|-14~~~~|-13~~~~|-13/14~~-|	(chorus or flanger pedal)
C|-------|-------|-------|---------|
G|-------|-------|-------|---------|
D|-------|-------|-------|---------|
A|-------|-------|-------|---------|

Chorus:
d|------------------------|------------------------|
a|------8-8-8-8-----10-11-|------8-8-8-8-----5--\3-|
F|------------------------|------------------------|
C|------------------------|------------------------|
G|-7-7----------7-7-------|-7-7----------7-7-------|
D|-7-7----------7-7-------|-7-7----------7-7-------|
A|-5-5----------5-5-------|-5-5----------5-5-------|

d|------------------------|------------------------|
a|------------------------|------------------------|
F|------------------------|------------------------|
C|------------------------|------------------------|
G|-7-7--10~~~~-7-7--12-13-|-7-7--10~~~~-7-7--7--\5-|
D|-7-7--10~~~~-7-7--12-13-|-7-7--10~~~~-7-7--7--\5-|
A|-5-5-- 8~~~~-5-5--10-11-|-5-5-- 8~~~~-5-5--5--\3-|

Bridge:
d|-----------------------------------------------------|
a|-----------------------------------------------------|
F|-12~~~-10~~-12~~~-10~~-12~~~-10~~--------------------|
C|----------------------------------12~~~---10~~~-(8~)-|
G|-----------------------------------------------------|
D|-----------------------------------------------------|
A|-----------------------------------------------------| 

d|-2222222222222222\\\\\\\\\(13)-|-22222222^22222222\\\\\\\\\(13)-|
a|-------------------------------|--------------------------------|
F|-------------------------------|--------------------------------|
C|-------------------------------|--------------------------------|
G|-------------------------------|--------------------------------|
D|-------------------------------|--------------------------------|
A|-------------------------------|--------------------------------|

                   bend this note half note up 
                   \            
d|-2222222222222222-242424242424-2424242424\\\\\\\\\\\\\(17)-|
a|------------------ ^          -----------------------------|
F|-----------------------------------------------------------|
C|-----------------------------------------------------------|
G|-----------------------------------------------------------|
D|-----------------------------------------------------------|
A|-----------------------------------------------------------|

Pre-Chorus:
d|-----------------------|
a|-----------------------|
F|-----------------------|
C|-----------------------|
G|-----------------------|
D|-----------------------|
A|-5\\4-4\\3-3\\2-2-2345-|

Chorus:
d|------------------------|------------------------|
a|------8-8-8-8-----10-11-|------8-8-8-8-----5--\3-|
F|------------------------|------------------------|
C|------------------------|------------------------|
G|-7-7----------7-7-------|-7-7----------7-7-------|
D|-7-7----------7-7-------|-7-7----------7-7-------|
A|-5-5----------5-5-------|-5-5----------5-5-------|

d|------------------------|------------------------|
a|------------------------|------------------------|
F|------------------------|------------------------|
C|------------------------|------------------------|
G|-7-7--10~~~~-7-7--12-13-|-7-7--10~~~~-7-7--7--\5-|
D|-7-7--10~~~~-7-7--12-13-|-7-7--10~~~~-7-7--7--\5-|
A|-5-5-- 8~~~~-5-5--10-11-|-5-5-- 8~~~~-5-5--5--\3-|