Korn - Somebody Someone Chords & Tabs

 

Somebody Someone Chords & Tabs

Korn Chords & Tabs

Version: 8 Type: Tab 0 ratings
1 star 2 stars 3 stars 4 stars 5 stars
comments

Somebody Someone Tab

Song:Somebody someone
Artist:Korn
Album issues!
by monkee
Maybe most of the tab are like this onee!! But i took it from the last korn's dvd!


Intro and verse(guitar 1)clean
D|----------1-----------3-0----------------------|
A|----3---3------3---3---------------------------|
F|--2---2------2---2-----------------------------|
C|-----------------------------------------------|
G|-----------------------------------------------|
D|-----------------------------------------------|
A|-----------------------------------------------|

Heavy intro and pre-chorus(both guitar)distorted
D|-----------------------------------------------|
A|-----------------------------------------------|
F|----------------------6^-----------------------|
C|-----------------------------------------------|
G|---------5---5--5-6-5--------------------------|
D|-----------------------------------------------|
A|---33-3----3-----------------------------------|

then the verse.(Guitar 1} 
guitar 2 this! with a wah!
D|-----------------------------------------------|
A|-----------------------------------------------|
F|-----------------------------------------------|
C|-----------------------------------------------|
G|---------4------4------------------------------|
D|-----------------------------------------------|
A|---xx-x----x-x---------------------------------|

Prechorus(both guitar)
[ Tab from: http://www.guitartabs.cc/tabs/k/korn/somebody_someone_tab_ver_8.html ]
Chorus(both guitars!)distorted
D|-----------------------------------------------|
A|-----------------------------------------------|
F|-----------------------------------------------|
C|-----------------------------------------------|
G|---4/8--7\5---4/5\4--8-7\3---------------------|
D|---4/8--7\5---4/5\4--8-7\3---------------------|
A|---2/6--5\3---2/3\2--6-5\1---------------------|

bridge(guitar 2)clean
D|-----------------------------------------------|
A|-----------------------------------------------|
F|-----------------------------------------------|
C|-----------------------------------------------|
G|-------1-------1-------1----1-1----------------|
D|---2333-3332333-3332333-3332-2-2---------------|
A|-----------------------------------------------|

Outro!! (guitar1)distorted
D|-----------------------------------------------|
A|-----------------------------------------------|
F|-----------------------------------------------|
C|-----------------------------------------------|
G|--3/4-7\4--3/44-7\4----------------------------|
D|--3/4-7\4--3/44-7\4----------------------------|
A|--1/2-5\2--1/22-5\2----------------------------|

(guitar 2)distorted
D|-----------------------------------------------|
A|-----------------------------------------------|
F|-----------------------------------------------|
C|-----------------------------------------------|
G|-----------------------------------------------|
D|-----1------1----------------------------------|
A|--23--3--233-3---------------------------------|


I guess it is 100% correct, so if you dont belive thatt go to helll!!! e mail me!!!
Korn_headd@hotmail.com
Comments