Korn - Somebody Someone Chords & Tabs

 

Somebody Someone Chords & Tabs

Korn Chords & Tabs

Version: 5 Type: Tab 0 ratings
1 star 2 stars 3 stars 4 stars 5 stars
comments

Somebody Someone Tab

   
by Slipknot #7

Tuning A D G C F A D 

INTRO 

Clean 

Gtr 1
d|------10------10--13---------10------15--12--|
A|--10------10-------------10------10----------|
F|---------------------------------------------|
C|---------------------------------------------|
G|---------------------------------------------|
D|---------------------------------------------|
A|---------------------------------------------|

 
  Gtr1 + Gtr2                         
d|-------------------------------------------|
A|-------------------------------------------|
F|----------------------------------------7--|
C|-------------------------------------------|
G|-------------5b--(5)-----------5b--(5)-----|
D|-------------------------------------------|
A|--3--3----3----------3--3----3-------------|


VERSE

clean 

Gtr 1
d|------10------10--13---------10------15--12--|
A|--10------10-------------10------10----------|
F|---------------------------------------------|
C|---------------------------------------------|
G|---------------------------------------------|
D|---------------------------------------------|
A|---------------------------------------------|

 PRE-CHORUS

Gtr 1 + 2
d|-------------------------------------------|
A|-------------------------------------------|
F|----------------------------------------7--|
C|-------------------------------------------|
G|-------------5b--(5)-----------5b--(5)-----|
D|-------------------------------------------|
A|--3--3----3----------3--3----3-------------|


CHORUS
[ Tab from: http://www.guitartabs.cc/tabs/k/korn/somebody_someone_tab_ver_5.html ]
Gtr 1 + 2
d|-------------------------------------------------------|
A|-------------------------------------------------------|
F|-------------------------------------------------------|
C|--4---8------7----5------------4/5\4---8------7-----3--|
G|--5---9------8----6------------5/6\5---9------8-----4--|
D|-------------------------------------------------------|
A|-------------------------------------------------------|



INTERLUDE

Gtr 1
d|--------------------------------------|
A|--------------------------------------|
F|--------------------------------------|
C|--------------------------------------|
G|--------------------------------------|
D|-----------1-----------------1--------|
A|---2/3-3-3---3-3-3-2/3-3-3-3---3-3-3--|

d|------------------------------------|
A|------------------------------------|
F|------------------------------------|
C|------------------------------------|
G|------------------------------------|
D|-----------1-----------1-1-----1-1--|
A|---2/3-3-3---3-3-3-2-2-----2-2------|


Outro 

Gtr 1
d|-------------------------------------|
A|-------------------------------------|
F|--------2--------------------2-------|
C|--3/4------4---3/4--4--4--4-------3--|
G|-------------------------------------|
D|-------------------------------------|
A|-------------------------------------|


Gtr 2
d|-------------------------------------|
A|-------------------------------------|
F|-------------------------------------|
C|-------------------------------------|
G|-----------------------------3-------|
D|--------1--------------------1-------|
A|--2/3------3---2/3--3--3--3-------2--|
Comments