Korn - Somebody Someone Chords & Tabs

 

Somebody Someone Chords & Tabs

Korn Chords & Tabs

Version: 4 Type: Tab 0 ratings
1 star 2 stars 3 stars 4 stars 5 stars
comments

Somebody Someone Tab

   
KoRn - Somebody Someone

Tuning - C,G,C,F,A,d

 Intro 1:
(Guitar 1 - Clean)
|----------13-----13-15-12--|
|----15--15-----15----------|
|--14--14-----14------------| x4
|---------------------------|
|---------------------------|
|---------------------------|

 Intro 2:
(Both Guitars - Distorted)
|--------------------------------|
|----------------------------3b--|
|--------------------------------| x8
|------0h1p0---------0h1p0-------|
|--------------------------------|
|--0-0-------0-0-0-0-------0-----|


 Verse:
(Guitar 1 - clean - pick close to bridge)
|----------13--------13-15-12--|
|----15--15-------15-----------|
|--14--14------14--------------| x8
|------------------------------|
|------------------------------|
|------------------------------|

(Guitar 2 - Slighty distorted with wah or Envelope filter)
|------------------------------|
|------------------------------|
|------------------------------| x8
|------------------------------|
|----5b5---5b5-----5b5----5b5--|
|--00----00-----00-----00------|
PM **    **     **     **


 Pre-Chorus:
(Both Guitars - Distorted)
|--------------------------------|
|----------------------------3b--|
|--------------------------------| x4
|------0h1p0---------0h1p0-------|
|--------------------------------|
|--0-0-------0-0-0-0-------0-----|


 Chorus:
(Both Guitars - Distorted)
|------------------------------------------|
|------------------------------------------|
|------------------------------------------|
|--2--6--5----3----------------0h1p0-2--6--|
|--2--6--5----3----------------0h1p0-2--6--|
|--2--6--5----3----------------0h1p0-2--6--|
        "CAN'T SOMEBODY HELP MEEEEEEEE!?!?!?!??"
[ Tab from: http://www.guitartabs.cc/tabs/k/korn/somebody_someone_tab_ver_4.html ]
|------------------------------------------------------------------|
|------------------------------------------------------------------|
|------------------------------------------------------------------|
|--5--1--------------0h1p0-2--6--5-----3---------0h1p0-2--6--5--1--|
|--5--1--------------0h1p0-2--6--5-----3---------0h1p0-2--6--5--1--|
|--5--1--------------0h1p0-2--6--5-----3---------0h1p0-2--6--5--1--|
  "ALL I NEED IS TO BEEEEEEEEE...LOVED JUST FOR MEEEEEEEEEEEEEEEE!!!!!"


 Bridge
(Guitar 2 - Clean with flange/chorus effects)
|------------------------------------------------------|
|------------------------------------------------------|
|------------------------------------------------------| x6
|------------------------------------------------------|
|---------2--------------2-------------2--------1---1--|
|--3h4-44---444---3h4-44---444--3h4-44---444--3---3----|


 Outro
(Both Guitars - Heavy Distortion)
|------------------------------|
|------------------------------|
|------------------------------| x12
|--3h4---7\4---3h4-4-4---7--3--|
|--3h4---7\4---3h4-4-4---7--3--|
|--3h4---7\4---3h4-4-4---7--3--|

last Chord
|---x---|
|--(4)--|
|---3---|
|---3---|
|---1---|
|---x---|


Lyrics
------

I can't stand to let you win 
I'm just watching you 
And I don't know what to do 
Feeling like a fool inside 
Feeling all the lies you hide 
Thought you were my friend 
Seems it never ends 

I need somebody, someone...

CAN'T SOMEBODY HELP ME!!?!?!?
ALL I NEED IS TO BE,
LOVED, JUST FOR ME...

Giving you with this and that 
Giving, getting nothing back 
It's all related to 
All the things I do 
Feeling like a fool inside 
Seeing all the things you tried 
I am nothing...

I need somebody, someone...

CAN'T SOMEBODY HELP ME!!?!?!?
ALL I NEED IS TO BE,
LOVED,JUST FOR ME...

I look
I sign 
I need someone 
Inside
To help me out 
With what 
I'm trying 
I'm crying 
I'm frying 
In a pile of 
Shit 
I'm dying 
I'm dying 
I'm DYING!!!

I need somebody (SOMEBODY)
somebody (SOMEBODY)
someone 

I need somebody (SOMEBODY)
somebody (SOMEBODY)
someone...

someone...

Questions???Comments???   sad_air_732@hotmail.com
Comments