Korn - Somebody Someone Chords & Tabs

 

Somebody Someone Chords & Tabs

Korn Chords & Tabs

Version: 1 Type: Tab 0 ratings
1 star 2 stars 3 stars 4 stars 5 stars
comments

Somebody Someone Tab

   
Tabs:         BAND: KORN
        SONG: SOMEBODY SOMEONE
        ALBUM:ISSUES
        

     TUNING: tune your guitar down one full step (A,D,G,C,F,A,D)


     INTRO/VERSE: (both guitars)

    D|----------13-----13-15-12-----------------|
    A|---14--14-----14--------------------------|
    F|-13--13-----13----------------------------|
    C|------------------------------------------|  
    G|------------------------------------------|
    D|------------------------------------------|
    A|------------------------------------------|

     INTRO/PRE-CHORUS:

    D|------------------------------------------|
    A|------------------------------------------|
    F|------------------------------------------|
    C|------------------------------------------|
    G|--------4~--------4~---5~-----------------|
    D|------------------------------------------|
    A|-2-2--2----2-2--2----2--------------------|

    ~ = bend string all the way up and back down
        on the last part (on the 5) don\'t bend back down

     VERSE: (guitar 1)

    D|------------------------------------------|
    A|------------------------------------------|
    F|------------------------------------------|
    C|------------------------------------------|
    G|--0-4--4-4~-0-4--4-4~---------------------|
    D|--***--*----***--*------------------------|
    A|------------------------------------------|

    * = palm mute

     VERSE: (guitar 2)

    D|----------13-----13-15-12-----------------|
    A|---14--14-----14--------------------------|
    F|-13--13-----13----------------------------|
    C|------------------------------------------|  
    G|------------------------------------------|
    D|------------------------------------------|
    A|------------------------------------------|

     CHORUS: (both guitars)
[ Tab from: http://www.guitartabs.cc/tabs/k/korn/somebody_someone_tab.html ]
    
D|------------------------------|------------------------------------|
    
A|------------------------------|------------------------------------|
    
F|------------------------------|------------------------------------|
    
C|------------------------------|------------------------------------|
    
G|------------------------------|------------------------------------|
    
D|-4--8--7--5--4/5\\4-4--8--7--3-|-4/5\\4-4--8--7--5--4/5\\4-4--8--7--3-|
    
A|-2--6--5--3--2/3\\2-2--6--5--1-|-2/3\\2-2--6--5--3--2/3\\2-2--6--5--1-|

     BRIDGE: (guitar 1)

     Play this part 4 times

    D|--------------------------------------------------------|
    A|--------------------------------------------------------|
    F|--------------------------------------------------------|
    C|--------------------------------------------------------|
    G|--------7-------------7-------------7--------6---6------|
    D|-8/9-99---999--8/9-99---999--8/9-99---999--8---8--------|
    A|--------------------------------------------------------| 

     Then play this part

    D|--------------------------------------------------------|
    A|--------------------------------------------------------|
    F|--------------------------------------------------------|
    C|--------------------------------------------------------|
    G|--------7-------------7-------------7--------6----------|
    D|-8/9-99---999--8/9-99---999--8/9-99---999--8---8--------|
    A|--------------------------------------------------------|

     OUTRO: (both guitars)

    
D|-------------------------------------------------|---------------|
A|-------------------------------------------------|---------------|
F|-------------------------------------------------|-3-------------|
C|-------------------------------------------------|-2-- let ring -|
G|------------------2------------------------------|-1-------------|
D|-----0------------0------------------------------|-0-------------|
A|-1/2---2--1/2-2-2---1----------------------------|---------------|
                                                     

Comments