Korn - Somebody Someone Chords & Tabs

 

Somebody Someone Chords & Tabs

Korn Chords & Tabs

Version: 5 Type: Bass Tab 0 ratings
1 star 2 stars 3 stars 4 stars 5 stars
comments

Somebody Someone Bass Tab

   
title: somebody someone
band: korn
album: issues

tabbed by downkast(ors_kar@hotmail.com)

This is usually played on a seven string but this is how it is played
on a six string. i'm pretty sure about the whole song except for the 
fast/ bridge section.

Somebody Someone
(dropped-D)

INTRO
e--8-8-11--8--13-10
B-8-8-----8-8------
G------------------X4
D------------------
A------------------
D------------------

PRE-CHORUS
e-----------------------------
B-----------------------------
G---------------------------10(bend by 1/2)
D-10-10-10-11-10-10-10-10-11--
A-10-10-10-11-10-10-10-10-11--
D-10-10-10-11-10-10-10-10-11--
[ Tab from: http://www.guitartabs.cc/tabs/k/korn/somebody_someone_btab_ver_5.html ]
VERSE
Guitar 1                         Guitar 2
e--8-8-11--8--13-10              e---------------
B-8-8-----8-8------              B---------------
G------------------              G---------------
D------------------              D-10-10-10-10-11
A------------------              A-10-10-10-10-11
D------------------              D-10-10-10-10-11
                                   |Palm muted|

CHORUS
e--------------------------
B--------------------------
G--------------------------
D-10-2-1-0-10(11)(10)-2-1-9
A-10-2-1-0-10(11)(10)-2-1-9
D-10-2-1-0-10(11)(10)-2-1-9
             |Trill|

Bridge
e--------------          e------
B--------------          B------
G--------------X3  then  G------
D--------1-----          D--1-1-
A-1-3-1-3-3-1-3          A-3-3--
D--------------          D------

End
e---------------------------------
B---------------------------------
G---------------------------------
D-10-10--13-10--10-10-10-10--13-8-
A-10-10--13-10--10-10-10-10--13-8-
D-10-10--13-10--10-10-10-10--13-8-

Order: 
Intro
Prechorus x4
Verse x8
Prechorus x4
Chorus x2
Verse x8
Prechorus x4
Chorus x2
Bridge x4
End x4
Comments