Korn - Somebody Someone Chords & Tabs

 

Somebody Someone Chords & Tabs

Korn Chords & Tabs

Version: 4 Type: Bass Tab 0 ratings
1 star 2 stars 3 stars 4 stars 5 stars
comments

Somebody Someone Bass Tab

This is most of the tab email me if you have a problem
at Mikeservos@hotmail.com

Verse 1: 4 times

G----------3-----|------------------|-------------|
D-----5-----3----|----------5-------|-------------|
A-3-3---1--------|-----6------4-----|-------------|
E----------------|-4-4---3----------|-------------|

chorus: twice
[ Tab from: http://www.guitartabs.cc/tabs/k/korn/somebody_someone_btab_ver_4.html ]
G-------------|---------------|-------------------|
D-------------|-1----3-2------|-1-----3-2---------|
A-------------|---------------|-------------------|
E-3-3-3-3-3-3-|---0-----------|----0--------------|

Verse same as first


bridge

G----------------|-----------------|--------------|
D----------------|-----------------|--------------|
A-4---4---3------|-----------------|--------------|
E---4---3--------|-----------------|--------------|

have fun!
Comments