Korn - Somebody Someone Chords & Tabs

 

Somebody Someone Chords & Tabs

Korn Chords & Tabs

Version: 1 Type: Bass Tab 0 ratings
1 star 2 stars 3 stars 4 stars 5 stars
comments

Somebody Someone Bass Tab

Arist: KoRn
Song: Somebody Someone
Album: ISSUES
Tab by: Diego Cárdenas
EMAIL: edge666crusher@hotmail.com
 
Im to lazy to type up the the order of the parts so listen to the CD and figure it out, 
this is a very easy song you should not any problem with it. Oh one more thing all parts 
are slapped n` popped exept verse and the part before the "I NEED SOMEBODY (SOMEBODY!) 
SOMEBODY, SOMEONE".
   
F||---------------------------------|    
C||---------------------------------|
G||--------5-----------5--------6---|
D||---------------------------------|
A||-3-3--3------3-3--3-----3-3------|
 
-----------------------------------------------------------
Verse (DO NOT SLAP THIS PART)
 
F||----------------------|
C||---------------10-----|
G||--------12--------10--|
D||-10-10------8---------|
A||----------------------|
 
 
F||------------------|
C||-------------7----|
G||-------8-------7--|
D||-6--6-----5-------|
A||------------------|

-----------------------------------------------------------
 
F||--------------|--------------------|
C||--------------|--------------------|
G||--------------|--------------------|
D||--------------|--------------------|
A||-3--7---6--4--|2h3-2-2--7--6--2----|
 
-----------------------------------------------------------
Interlude (DO NOT SLAP THIS PART EITHER.)
 
F||------------------|
C||----7----7-----6--|
G||-5----------4-----|
D||------5-----------|
A||------------------|
 
-----------------------------------------------------------
OUTRo

F||----------------------------|
C||----------------------------|
G||----------------------------|
D||---------1---1----------1---|
A||-2h3-3-3---3----2h3-3-3---2-|
 
 
Visit my band`s website: http://consuption.homestead.com/


[ Tab from: http://www.guitartabs.cc/tabs/k/korn/somebody_someone_btab.html ]
Comments