Korn - Shoots And Ladders Chords & Tabs

 

Shoots And Ladders Chords & Tabs

Korn Chords & Tabs

Version: 4 Type: Tab 0 ratings
1 star 2 stars 3 stars 4 stars 5 stars
comments

Shoots And Ladders Tab

   
        GUITAR TABLATURE ONLINE

          URL: www.angelfire.com/bc/tablature
	EMAIL: tablature@canada.com

---------------------------------------------------------------------------------------

	     SONG: Shoots and Ladders
	     BAND: Korn
	    ALBUM: Korn
   TRANSCRIBED BY: Paul De Jaegher
	     DATE: August 31, 1999
---------------------------------------------------------------------------------------

TUNING: tune your guitar down one full step (D,G,C,F,A,D)
INTRO: (starts after about 1:20 of bagpipes)

    D|----------------------|
    A|----------------------|
    F|----------------------|
    C|----------------------| play 8 times, and then hit a harmonic on the small e string 
    G|--3-3-------3-3--3-3--| after the 8th time
    D|--3-3-------3-3--3-3--|

     2ND PART OF INTRO:

    D|-----|
    A|-----|
    F|--0--|
    C|--5--| just repeatedly bend these two notes until the verse begins
    G|-----|
    D|-----|

     VERSE:

    D|---------------------------------------------------|
    A|---------------------------------------------------|
    F|-------0- < let these two notes ring for about ----|
    C|-------5- < 2 beats and then bend them gradually --|
    G|--5------------------------------------------------|
    D|--5------------------------------------------------|

     CHORUS:
[ Tab from: http://www.guitartabs.cc/tabs/k/korn/shoots_and_ladders_tab_ver_4.html ]
    D|---------------------------------------------------------------------------|
    A|---------------------------------------------------------------------------|
    F|---------------------------------------------------------------------------|
    C|---------------------------------------------------------------------------|
    G|--5----5--7----6----6--5----5--7----6----6--5----5--7----6----5----4----3--|
    D|--5----5--7----6----6--5----5--7----6----6--5----5--7----6----5----4----3--|

     BRIDGE:

     Play this once, it lead into the main bridge riff

    D|-----------------------------|
    A|-----------------------------|
    F|------------------0----------|
    C|-----------------------------|
    G|--4--3-------3------------3--|
    D|--4--3----3------------------|

     Here's the main bridge riff (it's all palm muted)

    D|-------------------------------------|
    A|-------------------------------------|
    F|-------------------------------------|
    C|-------------6-5------------6-5------|
    G|--4h5----5-5-----6-5----5-5-----6-5--|
    D|-------------------------------------|

     The main bridge riff is played about 16 times, and then there is a pause
     where Johnathan Davis mutters something.

     Then it starts up heavy again with this

    D|---------------------------------|
    A|---------------------------------|
    F|---------------------------------|
    C|---------------------------------|
    G|--6--5--4--3----4----4--------3--|
    D|--6--5--4--3----4----4--------3--|

     OUTRO:

    D|--10b----------8b-----------8b--|
    A|--13b---------11b----------11b--|
    F|--------------------------------|
    C|--------------------------------|
    G|--------------------------------|
    D|--------------------------------|
Comments