Korn - Shoots And Ladders Chords & Tabs

 

Shoots And Ladders Chords & Tabs

Korn Chords & Tabs

Version: 2 Type: Bass Tab 0 ratings
1 star 2 stars 3 stars 4 stars 5 stars
comments

Shoots And Ladders Bass Tab

Band - KoRn
Song - Shoots and Ladders
Tabbed by - Justin "Twist" Matteson

Intro-
G||--------------------|---------------------|
D||--------------------|---------------------|
A||--------------------|---------------------|
E||--------------------|---------------------|
A||--0-0-----0-0--0-0--|--0-0-----0-0-0-0-0--|

Verse-
G||-----------------------------|
D||----------x---x---x---x---x--|
A||----------x---x---x---x---x--|
E||--------x-x-x-x-x-x-x-x-x-x--|
A||--3-----x-x-x-x-x-x-x-x-x-x--|
[ Tab from: http://www.guitartabs.cc/tabs/k/korn/shoots_and_ladders_btab_ver_2.html ]
Chorus-
G||---------------|-----------|
D||---------------|-----------|
A||---------------|-----------|
E||---------------|-----------|
A||--3--3-5--4-3--|--3--2--1--|

Breakdown-
G||-----------------------------------|---------------------------------|
D||-----------------------------------|---------------------------------|
A||-----------------------------------|---------------------------------|
E||---------3h2--------------3h2------|---------------------------------|
A||--3--3-3-----5h3----3-3-3-----5h3--|--5--3--1--3~~~-1----5--3--3--1--|
Comments