Korn - Shoots Amp Ladders Chords & Tabs

 

Shoots Amp Ladders Chords & Tabs

Korn Chords & Tabs

Version: 1 Type: Bass Tab 0 ratings
1 star 2 stars 3 stars 4 stars 5 stars
comments

Shoots Amp Ladders Bass Tab

   
KoRn - Shoots and ladders
Tabbed By: Alex Rvero
EMail: rojokorn@aol.com


I GOT THIS TABS from the KoRn:Bass Anthology Series the official KoRn
Bass book so there is no way the tabs coud be wrong(I've see many
tabs that are fuckin' wrong) My e-mail is Rojokorn@aol.com    

      
Shoots and Ladders

Bass tuned like Fieldy:
(5)string:A
(4)string:D
(3)string:G
(2)string:C
(1)string:F

/ means repeat sing
) means it's another meassure
Ms means meassures
M means meassure
x means muted note or notes
> means slide

Moderately slow rock tempo=88

Wait like 1 minute and 30 while the bag pipes stop and the hit hat 
gets hit two times.

                Play 8 times         
F--------------------------------)(/---------------------------------
C--------------------------------)(/---------------------------------
G--------------------------------)(/:-------------------------------- 
D--------------------------------)(/---------------------------------
A----1 1 -------1 1---1 1--------)(/--1 1--------0 0 1 0 1-----------
  

F--------------------------------)-----------------------------------
C--------------------------------)-----------------------------------
G--------------------------------)-----------------------------------
D--------------------------------)-----------------------------------
A----1 1--------0 0 1 0 1--------)---1 1---------0 0 1 0 1-----------
 
                         
(1st ending)                      (2nd ending)    
F-------------------------------/)-----------------------------------
C-------------------------------/)-----------------------------------
G------------------------------:/)-----------------------------------
D-------------------------------/)-----------------------------------
A----1 1--------0 0 1 0 1-------/)---1 1-------0 0 1 0 1 1 2 3-------
                
Verse:
"Ring around the rosies" part

F------------x----------------x-------)-----x-------------x----------
C------------x----------------x-------)-----x-------------x----------
G------------x----------------x-------)-----x-------------x---------- 
D------------x----------------x-------)-----x-------------x----------
A-----3 3--------3 3---3 3-------x--x-)--3 3----3-3----3-3-----x-x---


F-----------x---------------x-------)--------x------------x----------
C-----------x---------------x-------)--------x------------x----------
G-----------x---------------x-------)--------x------------x---------- 
D-----------x---------------x-------)--------x------------x----------
A-----3-3-------3-3----3-3-----x--x-)---3-3----3-3---3-3-------0-----


F----------x-------------x---------)--------x-------------x----------
C----------x-------------x---------)--------x-------------x----------
G----------x-------------x---------)--------x-------------x---------- 
D----------x-------------x---------)--------x-------------x----------
A-----3-3-----3-3---3-3------x--x--)--3--3------3-3---3-3------0-----


                                 "Ashes ashes we all fall down" part                
F--------x------------x--------)-----x-----------x---)---------------
C--------x------------x--------)-----x-----------x---)---------------
G--------x------------x--------)-----x-----------x---)--------------- 
D--------x------------x--------)-----x-----------x---)---------------
A----3-3----3-3---3-3----x--x--)-3-3---3-3---3-3---4-)-3--2--1-------

 slightly faster tempo=92
Chorus: 
"Nur'ry rhymes are sad" part

F----------------------------)---------------------------------------
C----------------------------)---------------------------------------
G----------------------------)--------------------------------------- 
D----------------------------)---------------------------------------
A---3--3-3-3-3--5--4--4-4-4--)---3--3-3-3-3--5--4--4-4-4-------------

F---------------------------)----------------------------------------
C---------------------------)----------------------------------------
G---------------------------)---------------------------------------- 
D---------------------------)----------------------------------------
A---3--3-3-3-5---4-4-4-4-3--)--2---2-2-1---1-1-1-1-1--1--------------
[ Tab from: http://www.guitartabs.cc/tabs/k/korn/shoots_amp_ladders_btab.html ]
F----------------------------)---------------------------------------
C----------------------------)---------------------------------------
G----------------------------)--------------------------------------- 
D----------------------------)---------------------------------------
A---3--3-3-3-3--5--4--4-4-4--)---3--3-3-3-3--5--4--4-4-4-------------

F---------------------------)----------------------------------------
C---------------------------)----------------------------------------
G---------------------------)---------------------------------------- 
D---------------------------)----------------------------------------
A---3--3-3-3-5---4-4-4-4-3--)--2---2-2-1---1-1-1-1-1--1--------------

 "All this evil" part
F--------------------------------------------------------------------
C--------------------------------------------------------------------    
G-------------------------------------------------------------------- 
D--------------------------------------------------------------------
A--2------2-2----1---------------------------------------------------

start playing Jon whispers "this old man came rolling home"
play this part as fast as Head and play softly.

F------------------------------------)-------------------------------
C------------------------------------)-------------------------------    
G------------------------------------)------------------------------- 
D------------------------------------)-------------------------------
A--3---3-3-3-3-3-3-----3-3-3-3-3-3-3-)-3--3-3-3-3-3-3--3-3-3-3-3-3-3-

                      Shouted:"Knick-Knack padly wak give a dog a bone"
                      (Now slap that shit!!!)                   

                                       Play     7 times    
F--------------------)/---------------------------------------------/
C--------------------)/---------------------------------------------/    
G--------------------)/:-------------------------------------------:/ 
D--------------------)/--------4-3--------------4-3-----------------/
A-3---3-3-3-3-3-3-3--)/-3--3-3-----4-3-----3-3--------4-3-----------/


                     Whispered:Mary had a litle lamb it's fleece was 
                     white as snow and then a... 
F-------------------)-------------------------------------------------
C-------------------)-------------------------------------------------    
G-------------------)------------------------------------------------- 
D----------4-3------)-------------------------------------------------
A-3--3-3--------4-3-)-------------------------------------------------

"Mary had a little lamb it's fleece was white as snow and then a
                                              Play 7 times  
F/------------------------------------------------------------------/
C/------------------------------------------------------------------/    
G/:----------------------------------------------------------------:/ 
D/------------------------------------------------------------------/
A/-------4--3--2--1-------2----2-----1-1-1-1-11-1-1-----------------/

 second time Jon Shoutes: MARY HAD A LITTLE LAMB!!!!
F--------------------------------------------------------------------
C--------------------------------------------------------------------    
G-------------------------------------------------------------------- 
D--------------------------------------------------------------------
A------4--3--2-1-2---1--1-1-11-1-1-X---------------------------------

 Slower tempo=88
 Play the whole Verse again:

 Slightly faster tempo=92
 Play the whole Chorus again : 


 "All this evil" part is silenced this time


     Slower tempo=84
Outro: "Knick-Knack padly wak give a dog a bone"
     
                                                    Play 3 times
F/------------------------------------------------------------------/
C/------------------------------------------------------------------/    
G/:----------------------------------------------------------------:/ 
D/--------------------------------0>15------------------------------/
A/-----0--1-------0--1----0--1--------------------------------------/

End: "Knick-Knack padly wak give a dog a..."

F--------------------------------------------------------------------
C--------------------------------------------------------------------    
G-------------------------------------------------------------------- 
D--------------------------------------------------------------------
A-----0--1-------0--1-----0--1---------------------------------------KoRn fuckin' RULES!!!
Comments