Korn - Seed Chords & Tabs

 

Seed Chords & Tabs

Korn Chords & Tabs

Version: 2 Type: Tab 0 ratings
1 star 2 stars 3 stars 4 stars 5 stars
comments

Seed Tab

Band- Korn
Song- Seed
Album- Follow The Leader

INTRO:(Guitar 1)
|-21~~~-------21-20~~~-------19-18~~~-|
|-------17~~~----------17~~~----------|
|-------------------------------------|
|-------------------------------------|
|-------------------------------------|
|-------------------------------------|
|-------------------------------------|
[ Tab from: http://www.guitartabs.cc/tabs/k/korn/seed_tab_ver_2.html ]
INTRO:(Guitar 2) x2
||---------------||---------------|
||---------------||-13~-12~-11~~~-|
||-0~~~~--12~~~~-||---------------|
||---------------||---------------|
||---------------||---------------|
||---------------||---------------|
||---------------||---------------|

CHORUS:(Guitars 1 & 2)
|------------------------|
|------------------------|
|------8/9-8-------------|
|------x-x-x-------------|
|------6/7-6-------------|
|------------------3/4-3-|
|-0-0--------0--0--1/2-1-|

THE HEAVY PART:(Guitars 1 & 2)
|-----------------|
|-----------------|
|-----------------|
|-----------------|
|-4---3---6---3-4-|
|-4---3---6---3-4-|
|-2---1---4---1-2-|
Comments