Korn - Right Now Chords & Tabs

 

Right Now Chords & Tabs

Korn Chords & Tabs

Version: 5 Type: Tab 0 ratings
1 star 2 stars 3 stars 4 stars 5 stars
comments

Right Now Tab

Tabbed By - The Root Of All Evil

Intro x2(Gtr 1):
|-------------------------------------------|
|-------------------------------------------|
|-------------------------------------------|
|-------------------------------------------|
|-------------------------------------------|
|-----------5-----------4---------3---------|
|-0-0-1-0-0---0-0-1-0-0---0-0-1-0---0-0-1-0-|

Chorus x4(Gtrs 1 & 2):
|-------------------------------------------|
|-------------------------------------------|
|-------------------------------------------|
|-------------------------------------------|
|-------------------------------------------|
|-----------5-----------4---------3---------|
|-0-0-1-0-0---0-0-1-0-0---0-0-1-0---0-0-1-0-|

Verse x8(Gtrs 1 & 2):
|----------------------|
|----------------------|
|----------------------|
|----------------------|
|----------------------|
|----------------------|
|-0-0-1-0--0-0-0-0-1-0-|

Chorus x4(Gtrs 1 & 2)

Interlude(Gtr 1):
|----------------------|
|----------------------|
|----------------------|
|----------------------|
|----------------------|
|----------------------|
|-0-0-1-0--0-0-0-0-1-0-|
          |-BASS HERE-|

Verse x8(Gtrs 1 & 2)

Chorus x4(Gtrs 1 & 2)

Bridge(Gtr 1): Gtr 2 x8 with weird effect:
|----|--WITH--|------------------|
|----|--------|------------------|
|----|--SOME--|------------------|
|----|--------|------------------|
|----|-WEIRD--|------------------|
|-6~-|--------|------------------|
|-4~-|-EFFECT-|-4-4-5-4--4-4-5-4-|
|heavy part x8(Gtrs 1 & 2):
|----------------------|
|----------------------|
|----------------------|
|----------------------|
|----------------------|
|-2-2-3-2--2-2-2-2-3-2-|
|-0-0-1-0--0-0-0-0-1-0-|

Intro x2(Gtr 1)

Chorus x4(Gtrs 1 & 2)
[ Tab from: http://www.guitartabs.cc/tabs/k/korn/right_now_tab_ver_5.html ]
Outro x4(Gtrs 1 & 2):       Gtrs 1 & 2 x3:         Gtrs 1 & 2 x1:
|--------------------------|----------------------|------------------------|
|--------------------------|----------------------|------------------------|
|--------------------------|----------------------|------------------------|
|--------------------------|----------------------|------------------------|
|--------------------------|----------------------|------------------------|
|-2-2-2-2-3-2--2-2-2-2-3-2-|-2-2-3-2--2-2-2-2-3-2-|2-2-2-2-3-2--2-2-2-2-3-2|
|-0-0-0-0-1-0--0-0-0-0-1-0-|-0-0-1-0--0-0-0-0-1-0-|0-0-0-0-1-0--0-0-0-0-1-0|
PM------------------------]                      PM------------------------]

Im feeling mean today not lost not blown away
just irritated and quite hayed self control breaks down
why's everything so tame i like my life insane
im fabricating and debating who im gonna kick around

RIGHT NOW can't find a way to get across the hate when i see you
RIGHT NOW i feel this scratch inside i wanna slash and beat you
RIGHT NOW i'll rip the fucked up things inside that excite you
RIGHT NOW i can't control myself i fucking hate you

Im feeling cold today my hurt just fucked away
im devastated and frustrated god i feel so bound
so when i feel the need i think it's time to bleed
im gonna cut myself and watch the blood hit the ground

RIGHT NOW can't find a way to get across the hate when i see you
RIGHT NOW i feel this scratch inside i wanna slash and beat you
RIGHT NOW i'll rip the fucked up things inside that excite you
RIGHT NOW i can't control myself i fucking hate you

If you open your mouth again, i swear im gonna break
if you open your mouth again, oh god i cannot take it
shut up, shut up, shut up, i'll fuck you up
shut up, shut up, shut up, i'll fuck you up

SHUT UP SHUT UP SHUT UP I'LL FUCK YOU UP X4

RIGHT NOW can't find a way to get across the hate when i see you
RIGHT NOW i feel this scratch inside i wanna slash and beat you
RIGHT NOW i'll rip the fucked up things inside that excite you
RIGHT NOW i can't control myself i fucking hate you

I FUCKING HATE YOU x4

I FUCKING HATE YOU(shut up) x4

SHUT UP!


Great song. Just like every other KORN song.
PLEASE RATE MY TAB!
Comments