Korn - Right Now Chords & Tabs

 

Right Now Chords & Tabs

Korn Chords & Tabs

Version: 2 Type: Tab 1 rating
1 star 2 stars 3 stars 4 stars 5 stars
comments

Right Now Tab

#----------------------------------PLEASE NOTE---------------------------------#
#This file is the author's own work and represents their interpretation of the #
#song. You may only use this file for private study, scholarship, or research. #
#------------------------------------------------------------------------------#

SONG:RIGHT NOW
ARTIST:KORN
ALBUM:KORN TAKE A LOOK IN THE MIRROR

TRANSCRIBED BY:DONOVAN LEWIS AND BARRY ROBERTSON.(donovan77@ananzi.co.za)

GUITAR TUNED:A.E.A.C.E.A.all my tunign of guitars for korn tabs are the same and you can play all of them at the same tuning.THE TOP STRING FOR MY GUITAR I USE A 58.

SEEING THAT KORN PLAYS A 7-STRING GUITAR AND MOST PEOPLE HAVE A 6-STRING WE DID THE TABS FOR A 6-STRING GUITAR.
INTRO:

A----------------------------------------------------------------------------------------------------------------------------------------------------
E----------------------------------------------------------------------------------------------------------------------------------------------------
C----------------------------------------------------------------------------------------------------------------------------------------------------
A----------------------------------------------------------------------------------------------------------------------------------------------------  (X6)
E----------------------------------6------------------------------------5---------------------------4------------------------------------------------
A--0--0---1---0-------0--------------0---0--1--0--------0----------------0--0--1--0-------------0--0--1--0--------0---0---0--0-1--0------------------

VERSE:

A----------------------------------------------------------------------------------
E----------------------------------------------------------------------------------
C----------------------------------------------------------------------------------
A----------------------------------------------------------------------------------
E----------------------------------------------------------------------------------  (X8)
A---0--0--1--0--------0--0--0--0--1--0---------------------------------------------
I'm feeling mean today ...

CHORUS:
A----------------------------------------------------------------------------------------------------------------------------------------------------
E----------------------------------------------------------------------------------------------------------------------------------------------------
C----------------------------------------------------------------------------------------------------------------------------------------------------
A----------------------------------------------------------------------------------------------------------------------------------------------------(X3)
E----------------------------------6------------------------------------5---------------------------4------------------------------------------------
A--0--0---1---0-------0--------------0---0--1--0--------0----------------0--0--1--0-------------0--0--1--0--------0---0---0--0-1--0------------------

Right now ... 

VERES:

A---------------------------------------------------------------------------------------------------------
E---------------------------------------------------------------------------------------------------------
C---------------------------------------------------------------------------------------------------------
A---------------------------------------------------------------------------------------------------------
E---------------------------------------------------------------------------------------------------------   (X9)
A---0--0--1--0--------0--0--0--0--1--0--------------------------------------------------------------------

I'm feeling cold today ...

[ Tab from: http://www.guitartabs.cc/tabs/k/korn/right_now_tab_ver_2.html ]
CHORUS:
A----------------------------------------------------------------------------------------------------------------------------------------------------------------------
E----------------------------------------------------------------------------------------------------------------------------------------------------------------------
C----------------------------------------------------------------------------------------------------------------------------------------------------------------------
A----------------------------------------------------------------------------------------------------------------------------------------------------------------------  (X4)
E----------------------------------6------------------------------------5---------------------------4------------------------------------------------------------------
A--0--0---1---0-------0--------------0---0--1--0--------0----------------0--0--1--0-------------0--0--1--0--------0---0---0--0-1--0------------------------------------

Right now ...


PRECHORUS:

A-------------------------------------------------------------------------------------------
E-------------------------------------------------------------------------------------------
C-------------------------------------------------------------------------------------------
A-------------------------------------------------------------------------------------------
E--------------1----------1----------1----------------------------------------------------   (X5)
A-----0-0---------0-0-------0-0---------------------------------------------------------

You open your mouth again ...

A------------------------------------------------------------------------------------------
E------------------------------------------------------------------------------------------
C------------------------------------------------------------------------------------------
A------------------------------------------------------------------------------------------
E-------------------------------------------------..-----------------------------------------   (X8)
A----4--4---5--4------4--4--4--4-----5--4-----------------------------------------

(SHUT UP SHUT UP SHUT UP I'LL FUCK YOU UP)

CHORUS:
A----------------------------------------------------------------------------------------------------------------------------------------------------------------------
E----------------------------------------------------------------------------------------------------------------------------------------------------------------------
C----------------------------------------------------------------------------------------------------------------------------------------------------------------------
A----------------------------------------------------------------------------------------------------------------------------------------------------------------------  (X6)
E----------------------------------6------------------------------------5---------------------------4------------------------------------------------------------------
A--0--0---1---0-------0--------------0---0--1--0--------0----------------0--0--1--0-------------0--0--1--0--------0---0---0--0-1--0------------------------------------

Right now ...

VERSE:

A---------------------------------------------------------------------------------------------------------
E---------------------------------------------------------------------------------------------------------
C---------------------------------------------------------------------------------------------------------
A---------------------------------------------------------------------------------------------------------
E---------------------------------------------------------------------------------------------------------   (X4)
A---0--0--1--0--------0--0--0--0--1--0-------------------------------------------------------------------

A---------------------------------------------------------------------------------------------------------
E---------------------------------------------------------------------------------------------------------
C---------------------------------------------------------------------------------------------------------
A---------------------------------------------------------------------------------------------------------
E---------------------------------------------------------------------------------------------------------  (X4)
A---1--1--0--0--1--0---1---1---0---0--1--0----------------------------------------------------------------

A--------------------------------------------------------------------------------------
E--------------------------------------------------------------------------------------
C--------------------------------------------------------------------------------------
A--------------------------------------------------------------------------------------
E--------------------------------------------------------------------------------------
A---1--1--1--1--1--1--1---------1--1--1--1--1--1-----------------------------


I FUCKING HATE YOU X 7


I THINK THIS TAB IS 100% 
THE TIMING IS NOT THAT HARD.
HOPE YOU ENJOY THE TAB,FOR NEW TABS OF KORN E-MAIL ME AT donovan77@ananzi.co.za.

DONOVAN LEWIS.
Comments