Korn - Right Now Chords & Tabs

 

Right Now Chords & Tabs

Korn Chords & Tabs

Version: 5 Type: Bass Tab 0 ratings
1 star 2 stars 3 stars 4 stars 5 stars
comments

Right Now Bass Tab

korn-"right now"
take a look in the mirror       TUNING:5-STRING BASS DROPPED 1 WHOLE STEP
TABBED BY JUSTIN MALERBE OF SYNONUS                *=not muted
                                                   m=muted   
                  INTRO                            /=slide down
                                                   \=slide up
      GUITAR PART                                  x=dead note
  F|---------------|--------------------|              
  C|---------------|--------------------|             
  G|---------------|--------------------|x1             
  D|---------------|--------------------|              
  A|---------------|--0-0---------------|

                CHORUS
  F|--------------------------------------|
  C|--------------------------------------|
  G|----------5---------4---------3-------|x1         
  D|--------------------------------------|
  A|0-0-1-0-X---0-1-0-X---0-1-0-X---0-1-0-|  


  F|------------------------------------------|
  C|------------------------------------------|
  G|------------5---------4---------3---------|x3
  D|------------------------------------------|
  A|0-0-0-0-1-0-X---0-1-0-X---0-1-0-X---0-1-0-|

[ Tab from: http://www.guitartabs.cc/tabs/k/korn/right_now_btab_ver_5.html ]
                VERSE
  F|------------------------|
  C|------------------------|
  G|------------------------|x8
  D|------------------------|
  A|-0-0-1-0----0-0-0-0-1-0-|

                BRIDGE
  F|--------|------------------------------|
  C|--------|------------------------------|
  G|--------|------------------------------|x1
  D|--------|------------------------------|
  A|-1m-----|---18\8\3\1-1/5/12/15\10\5/10/|  

                MID CHORUS
  F|------------------------------------------|
  C|------------------------------------------|
  G|------------------------------------------|x4
  D|------------------------------------------|
  A|-4-3-4----4-3-4-3-4----4-3-4----4-3-4-3-4-|

                POST BRIDGE
         GUITAR PART
  F|------------------|----------------------|
  C|------------------|----------------------|
  G|------------------|----------------------|x1
  D|------------------|----------------------|
  A|0-0---------------|0-0-0-0-1-0-----------|

                 OUTRO
  F|-------------|------------|
  C|-------------|------------|
  G|-------------|x6----------|x2
  D|-------------|------------|
  A|0-0-0-0-1-0*-|0-0-0-0-----|



intro                          HAVE FUN!
chorus                         (WITH THE RIGHT TABS)       
verse
chorus
verse
chorus
bridge
mid chorus
post bridge
chorus
outro
Comments