Korn - Proud Chords & Tabs

 

Proud Chords & Tabs

Korn Chords & Tabs

Version: 2 Type: Tab 0 ratings
1 star 2 stars 3 stars 4 stars 5 stars
comments

Proud Tab

KoRn, Proud.
Tabbed by Max Blair, follow_the_leader15@yahoo.com.
  
  Band: KoRn
 Title: Proud
 Album: Unreleased 5th album
 Tabbed by: Max Blair - follow_the_leader15@yahoo.com
        
6 or 7 string guitar on E tuning


Before music starts it sounds like Jon is yelling and then drums enter.

Intro 
-----(x8)------|-then play--------------------
---------------|------------------------------
--8-8-8--8--8-8|---13--10--16-----------------
--8-8-8--8--8-8|----x---x---x-----------------
--6-6-6--6--6-6|---11---8--14-----------------
---------------|------------------------------

Verse
--------------------
--------------------
-8-8-8--8--8-8------
-8-8-8--8--8-8------
-6-6-6--6--6-6------
--------------------
Must you keep looking at me?....



Chorus
[ Tab from: http://www.guitartabs.cc/tabs/k/korn/proud_tab_ver_2.html ]
-------------------------
-------------------------
-11--10--7---------------
-11--10--7---------------
--9---8--5---------------
-------------------------
You took my pride away.....



When Jon is yelling

--------------------------------------
--------------------------------------
-8--7--10--7--8-----------------------
-8--7--10--7--8-----------------------
-6--5---8--5--8-----------------------
--------------------------------------

Outro

--------------------------------------
--------------------------------------
-13--10--7--11--10--6--10--6--4-------
--x---x--x---x---x--x---x--x--x-------
-11---8--5---9---8--4---8--4--2-------
--------------------------------------

This song I downloaded from Napster. For the search put "5th album" and it should work. Thats how I got this song. 



 
:: Ultimate Guitar Archive :: 
http://www.ultimate-guitar.com 

Comments