Korn - Proud Chords & Tabs

 

Proud Chords & Tabs

Korn Chords & Tabs

Version: 1 Type: Tab 0 ratings
1 star 2 stars 3 stars 4 stars 5 stars
comments

Proud Tab

#----------------------------------PLEASE NOTE---------------------------------#
#This file is the author's own work and represents their interpretation of the #
#song. You may only use this file for private study, scholarship, or research. #
#------------------------------------------------------------------------------#

"Proud" by Korn
Performed on the "I Know What You Did Last Summer" soundtrack
Tabbed by Brandon Williams 
bwillia1074@cs.com

I found this song in the January, 1998 issue of Guitar.  It is arranged for a 6-string but was recorded on 7-strings.
This song is awesome so I'd suggest learning it.  Feel free to pass it all over the net, too.
 
Tune down one full step

Riff 1:
|---------------------------|
|---------------------------|
|-10---10---10---10---10-10-|
|-9--X-9--X-9--X-9--X-9--9--|
|-8----8----8----8----8--8--|
|-7--X-7--X-7--X-7--X-7--7--|

Riff 2:
|------------|
|-0--0-----0-|
|-3--0-----6-|
|------------|
|------------|
|------------|
[ Tab from: http://www.guitartabs.cc/tabs/k/korn/proud_tab.html ]
Riff 3:
 guitar II (3a)
|---------|------|----------|---|-------------|
|-0--0----|--0---|--0--0----|--0|-----------0-|
|-13-12---|--9---|--13-12---|--9|-----------7-|
|---------|------|----------|---|-------------|
|---------|------|----------|---|-------------|
|---------|------|----------|---|-------------|
|                                             |
|guitar I (3b)                                |
|---------|------|----------|---|-------------|
|-0--0----|------|--0--0----|---|-------------|
|-1--0----|------|--1--0----|---|-------------|
|---------|--2---|----------|--3|---2h3-X-3-0-|
|---------|------|----------|--3|---2h3-X-3-0-|
|---------|------|----------|---|-------------|

Riff 4:
guitar II with this 8 times:
|----------------------------------------------------------|
|-0-----0--0-----0-----------------------------------------|
|-4-----5--8-----7-----------------------------------------|
|----------------------------------------------------------|
|----------------------------------------------------------|
|----------------------------------------------------------|
|                                           |
|guitar I with the above 4 times, then:                    |
|----------------------------------------------------------|
|----------------------------------------------------------|
|----------------------------------------------------------|
|----------------------------------------------------------|
|-2-----3--6-----5-----------------------------------------|
|----------------------------------------------------------|

Fill 1:
|----------------------------------------|
|----------------------------------------|
|----------------------------------------|
|-8---8---8---8---8-8--8---8---8---8---8-|
|-7-X-7-X-7-X-7-X-7-7--7-X-7-X-7-X-7-X-7-|
|----------------------------------------|

Fill 2:
|----|
|-17-|
|----|
|----|
|----|
|----|

Riff 5:
|----------------------------------------|
|-11--8----5----10--7----4----9--7----14-|
|----------------------------------------|
|-9---6----3----8---5----2----7--4----12-|
|-------------------------------------0--|
|----------------------------------------|
Comments