Korn - Pretty Chords & Tabs

 

Pretty Chords & Tabs

Korn Chords & Tabs

Version: 2 Type: Tab 0 ratings
1 star 2 stars 3 stars 4 stars 5 stars
comments

Pretty Tab

This is on a six string.

MAIN Riff

e|---------------------------------------------------------------------------|
B|---------------------------------------------------------------------------|
G|------------------------------------------2h3--5---------------------------|
D|---------7--5----------8--------7---5--------------------------------------|
A|------6-------6-----6---------6-------6------------------------------------|
E|--0--5------------5---------5----------------------------------------------|

Repeat that 5 times

CHORUS
[ Tab from: http://www.guitartabs.cc/tabs/k/korn/pretty_tab_ver_2.html ]
e|-----------------------------------------------------------------------------------|
B|-----------------------------------------------------------------------------------|
G|-----------------------------------------------------------------------------------|
D|--4--6--6-----2--3-3---------------------------------------------------------------|
A|--5--7--7-----3--1-1---------------------------------------------------------------|
E|-----------------------------------------------------------------------------------|

Then repeat that 8 times and go back to the main riff
Comments