Korn - Pretty Chords & Tabs

 

Pretty Chords & Tabs

Korn Chords & Tabs

Version: 1 Type: Tab 0 ratings
1 star 2 stars 3 stars 4 stars 5 stars
comments

Pretty Tab

   
        WWW.EXTREMETABS.COM

          URL: www.extremetabs.com
	EMAIL: extremetabsdotcom@hotmail.com

	     SONG: Pretty
	     BAND: Korn
	    ALBUM: Follow The Leader
   TRANSCRIBED BY: Nick Di Claudio
	     DATE: Unknown

	TUNING: tune your guitar down one full step (A,D,G,C,F,A,D)


     INTRO/BRIDGE RIFF:
[ Tab from: http://www.guitartabs.cc/tabs/k/korn/pretty_tab.html ]
    D|------------|
    A|------------|
    F|------------|   
    C|--8--8-8-8--|   
    G|--9--9-9-9--|
    D|--9--9-9-9--|
    A|--7--7-7-7--|

     RIFF 2:

    D|------------------------|
    A|------------------------|
    F|------------------------|
    C|------------------------|
    G|-------9-7--------9-10--|
    D|-----9----------9-------|
    A|--7-7-------7-7---------|

     RIFF 3:

    D|------------|
    A|------------|
    F|------------|
    C|-2--4-------|
    G|-2--4--5-3--|
    D|-0--2--5-3--|
    A|-------3-1--|
Comments