Korn - Predictable Chords & Tabs

 

Predictable Chords & Tabs

Korn Chords & Tabs

Version: 1 Type: Tab 0 ratings
1 star 2 stars 3 stars 4 stars 5 stars
comments

Predictable Tab

#----------------------------------PLEASE NOTE---------------------------------#
#This file is the author's own work and represents their interpretation of the #
#song. You may only use this file for private study, scholarship, or research. #
#------------------------------------------------------------------------------##
Date: Thu, 9 Nov 1995 23:59:26 -0800 (PST)
From: James Albers 
Subject: Predictable.tab (Korn)

Predictable-Korn
Transcribed by James Albers

Riff 1
G||-------------------------------||
D||-------2^1------------2^1------||* Palm Mute on these notes
A||--0-00----0-2^3-0-2^3-----2^3--||@ Not played when vocals come in
       **  @
Riff 2
G||-------4\3------------4\3------||
D||--2----2\1--4/5---4/5-2\1-4/5--||
A||--0-00----0-2/3-0-2/3-----2/3--||
**
Fill 1
C||--------------------------16---||
G||-------4\3------------4\3-15---||Tremolo Picking and Chorus/Flange
D||--2----2\1--4/5---4/5-2\1-14---||used on 13-14-15-16 chord
A||--0-00----0-2/3-0-2/3-----13---||
[ Tab from: http://www.guitartabs.cc/tabs/k/korn/predictable_tab.html ]
Riff 3
G||---------------------------------------------||
D||--2-2---2---2-2---2---2-2---2---2-2---2-2----||   Rest on X's-listen to
A||--0-0-X-0---0-0-X-0---0-0-X-0---0-0-x-0--00--||   the album

Riff 4
C||------------------------------------------------------------------||
G||--10\9-----9\8-----8\7-----7\6------------------------------------||
D||---8\7-7-7-7\6-6-6-6\5-5-5-5\4-4---6\5-----5\4-----4\3-----3\2----||
A||-----------------------------------4\3-3-3-3\2-2-2-2\1-1-1-1^0-0--||

Riff 5 
G||-----------------------------------------------------------------3---||
D||--2-2----2-2----2-2---2----3-3------2-2----2-2----2-2---2----3-3-1---||
A||--0-0-X--0-0-X--0-0-X-0--0-1-1------0-0-X--0-0-X--0-0-X-0--0-1-1-1---||
Rest on X's--Listen to album for rhythm--

Riff 6
C||---------------------------3--2------||
G||--2--------5--4-4----5--3--1--0--3---||Bass follows this pattern too
D||--0--2--3--3--2-2----3--1--------1---||
A||-----0--1----------------------------||

Riff 7
C||-----------3-4------||
G||--2--------1-2--3---||Bass follows this pattern too
D||--0--2--3-------1---||
A||-----0--1-----------||

Riff 1--Riff 2--Fill 1--Riff 2--Riff 3--Riff 4--Riff 5--Riff 6--
Riff 6(bass)--Riff 7--Riff 2--Riff 3--Riff 4--Riff 5('till end)
==============================================================




Laters--
James 
Comments