Korn - Predictable Chords & Tabs

 

Predictable Chords & Tabs

Korn Chords & Tabs

Version: 1 Type: Bass Tab 0 ratings
1 star 2 stars 3 stars 4 stars 5 stars
comments

Predictable Bass Tab

Band: Korn
Song: Predictable
Album: Korn
Transcribed by Mat (matthew.conway@zoom.co.uk)
4-string bass Normal tuning (EADG) I think but I'm not sure

"exodus@hiline.net" did a tab for this but it only had riff 1
---------------------------------------------------------------------------
After guitar intro

Riff 1 (x20)

G--------------------------------------------------------------------------
D--------------------------------------------------------------------------
A------------5-4----------------5-4-------------------------------------
E----3-3-3------0-5-6-0-5-6------5-6--------------------------------

Riff 2 (x1)

G--------------------------------------------------------------------------
D--------------------------------------------------------------------------
A----0-0---0-0---0-0---0-0--------------------------------------------
E--------------------------------------------------------------------------

Riff 3 (x4)

G--------------------------------------------------------------------------
D--------------------------------------------------------------------------
A--5/444--4/333--3/222--2/111---------------------------
E--------------------------------------5/444--4/333--3/222--2/111-

Riff 4 (x2)
[ Tab from: http://www.guitartabs.cc/tabs/k/korn/predictable_btab.html ]
G--------------------------------------------------------------------------
D--------------------------------------------------------------------------
A----0-0---0-0---0-0---0---0-0-0------------------------------------
E--------------------------------------------------------------------------

Riff 5 (x10)

G--------------------------------------------------------------------------
D--------------------------------------------------------------------------
A----5-----6-5--6-4---9-8-3-------------------------------------------
E------5-6----------------------------------------------------------------

Riff 6 (x4)    "You wait for me..."

G--------------------------------------------------------------------------
D--------------------------------------------------------------------------
A--------5-----------------------------------------------------------------
E-----------5--6--4--5--3-----------------------------------------------



Back to Riff 1 (x4)
             Riff 2 (x1)
             Riff 3 (x4)
             Riff 4 until the end

That's it. It's not that hard but riff 1 is a bit tricky. You might wanna try it
with 10 and 9 on the E-string instead of the 5 and 4 on the A-string.

Mail me any corrections or anything at "matthew.conway@zoom.co.uk" 
or ICQ no. 66467328

If anyone knows "Make Me Bad" for the bass, please mail me it.

Comments