Korn - Porno Creep Chords & Tabs

 

Porno Creep Chords & Tabs

Korn Chords & Tabs

Version: 1 Type: Tab 0 ratings
1 star 2 stars 3 stars 4 stars 5 stars
comments

Porno Creep Tab

Korn - Porno Creep (Cool Guitar Version)
Tabbed By: Scott Burns
Contact: psburns@lycos.com

This is cool its the bass version on a guitar its sounds just like it
on Acoustic.
[ Tab from: http://www.guitartabs.cc/tabs/k/korn/porno_creep_tab.html ]
|-----------------------------------------------------|
|-----------------------------------------------------|
|--------------------------------------------5--3-----|
|----------------3---------------------3--5--------3--|
|----------3--5------------------3--5-----------------|
|-----3--5-----------------3--5-----------------------|
|--3-------------------3------------------------------|

|-----------------------------------------------------|
|-----------------------------------------------------|
|-----------------------------------------------------|
|-----------------3----------------------------3--4---| 
|-----------3--5----------------------3--4--5---------|
|-----3--5---------------------3--5-------------------|
|--3-------------------3~~~~~-------------------------|

To correct me just email me at psburns@lycos.com this is also my first tab.
Comments