Korn - Porno Creep Chords & Tabs

 

Porno Creep Chords & Tabs

Korn Chords & Tabs

Version: 5 Type: Bass Tab

Porno Creep Bass Tab

F|----------------|--------------------7--------|
C|-------------5--|-------------5----7-----5----|
G|-------5--7-----|-------5--7---------------5--|
D|---5/7----------|---5/7-----------------------|
A|-5--------------|-5---------------------------|

F|----------------|---------------------------------|---------------|
C|-------------5--|---------------------------------|-------------5-|
G|-------5--7-----|-------5--7------7--5----------5-|-------5--7----|
D|---5/7----------|---5/7----------------7----5/7---|---5/7---------|
A|-5--------------|-5------------5------------------|-5-------------|

F|-------------------7-------|------------------------|-------|
C|-------------5---7----5----|-------5--(5)-----------|-------|
G|-------5--7-------------5--|---5--7-------5/7---5---|5/7-5--|
D|---5/7---------------------|---5/7------------------|3 5/7--|
A|-5-------------------------|-5----------------------|-3/4/5

F|----------------|-------------------7-------|----------------|
C|-------------5--|-------------5---7----5----|-------------5--|
G|--------5-7-----|--------5-7-------------5--|--------5-7-x2--|
D|---5/7----------|---5/7---------------------|---5/7----------|
A|-5--------------|-5-------------------------|-5----3/5-------|

F|----------------|-----------------7-------|---------------|
C|-------------5--|-----------5---7----5----|------------5--|
G|--------5-7-----|-------5-7------------5--|--------5-7----|
D|---5/7----------|---5/7-------------------|---5/7---------|
A|-5--------------|-5-----------------------|-5-------------|
[ Tab from: http://www.guitartabs.cc/tabs/k/korn/porno_creep_btab_ver_5.html ]
F|-9-7------------|----7--------------------|
C|------9-8-7-----|--5----5---5------7---5--|
G|-----------------------------------------|--------5-7-----|-------5-7----------5--|
D|--------------------3/4/5--1/4-bend-5----|---5/7----------|---5/7-----------------|
A|--------------3/4/5----------------------|-5--------------|-5---------------------|

F|--------------|---------------------------|--------------|
C|-----------5--|-------9--8--7--6--5--4--3-|-----------5--|
G|-------5-7----|-7/8/9---------------------|-------5-7----|
D|---5/7--------|---------------------------|---5/7--------|
A|-5------------|---------------------------|-5------------|

F|----------------7-----|--------------|----------------------------------------|
C|-----------5--7---5---|-----------5--|----------------------------------------|
G|-------5-7----------5-|-------5-7----|-------5-7------7-5--------5/7-----5/7--|
D|---5/7----------------|---5/7--------|---5/7--------------7--5/7-----5/7------|
A|-5--------------------|-5------------|-5-----------5--------------------------|

F|--------------|----------------7-----|--------------|--------------|
C|-----------5--|-----------5---7--5---|-----------5--|-----------5--|
G|-------5-7----|-------5-7----------5-|-------5-7----|-------5-7----|
D|---5/7--------|---5/7----------------|---5/7--------|---5/7--------|
A|-5------------|-5--------------------|-5------------|-5------------|

F|-------------------------------|-------------9--|
C|-------------------------------|--------7/9-----|
G|----------------5/6/7---7/8/9--|----------------|
D|-3/4/5---5/6/7-----------------|-0--------------|
A|-------------------------------|----------------|