Korn - Porno Creep Chords & Tabs

 

Porno Creep Chords & Tabs

Korn Chords & Tabs

Version: 4 Type: Bass Tab 0 ratings
1 star 2 stars 3 stars 4 stars 5 stars
comments

Porno Creep Bass Tab

   
-------------------------------------------------------------------------------
			     PORNO CREEP - KoRn
-------------------------------------------------------------------------------

Tabbed By : KoRnKid89
e-mail: XblytheX89@aol.com

Tuning: ADGCF

  Riff 1A:
F|----------------------------|---------------------------|
C|----------------------------|---------------------------|
G|----------------------------|---------------------------|
D|-----0-0-1-0--3-------------|-----0--1-0--3--5h7--3-----|
A|--0-------------------------|--0---------------------3--|

  Riff 1B:
F|---------------------------|---------------------------|
C|---------------------------|---------------------------|
G|---------------------------|---------------------------|
D|-----0--1-0--3-------------|-----0--1-0--3--5h7--3-----|
A|--0------------------------|--0---------------------3--|

  Riff 2:
F|----------------------------|---------------------------|
C|----------------------------|---------------------------|
G|----------------------------|---------------------------|
D|-----0-0-1-0--3-------------|-----0--1-0--3-------------|
A|--0-------------------------|--0------------3p1p0--0h4--|

  Riff 3:
F|---------------------------|---------------------------|
C|---------------------------|---------------------------|
G|---------------------------|---------------------------|
D|-----0--1-0--3-------------|---------------------------|
A|--0------------------------|--4---2---3-/4/5--4--------|
[ Tab from: http://www.guitartabs.cc/tabs/k/korn/porno_creep_btab_ver_4.html ]
  Riff 4:
F|---------------------------|---------------------------|
C|---------------------------|---------------------------|
G|---------------------------|---------------------------|
D|-----0--1-0--3-------------|---------------------------|
A|--0------------------------|--4---2---0---4------------|

  Riff 5:
F|---------------------------|---------------------------|
C|---------------------------|---------------------------|
G|---------------------------|---------------------------|
D|-----0--1-0--3-------------|---------------------------|
A|--0------------------------|--7-5--4--3--1--2h4p2h4h5--|

  Riff 6:
F|---------------------------|-----------------------------|
C|---------------------------|-----------------------------|
G|---------------------------|-----------------------------|
D|-----0--1-0--3-------------|-------7--6--5--4--3--2-1-0--|
A|--0------------------------|--5h7------------------------|

  Riff 7:
F|---------------------------|-------------------------------|
C|---------------------------|-------------------------------|
G|---------------------------|-------------------------------|
D|-----0--1-0--3-------------|-----0--1-0--3-----------------|
A|--0------------------------|--0-------------7p6-6p5-4p3h4--|

  Riff 8:
F|---------------------------|---------------------------|
C|---------------------------|---------------------------|
G|---------------------------|---------------------------|
D|-----0--1-0--3-------------|---------------------------|
A|--0------------------------|--0h2/3--0h3/4--0h4/5--5---|

  Outro:
F|---------------------------|
C|---------------------------|
G|-----------7~--------------|
D|------0-6------------------|
A|--0------------------------|


Structure:
Riff 1A
Riff 2
Riff 1B
Riff 3
Riff 1B
Riff 4
Riff 1B
Riff 5
Riff 1B
Riff 6
Riff 1B
Riff 7
Riff 1B
Riff 8
Outro



| P  pop
| S  slap
| /  slide up
| \  slide down
| h  hammer-on
| p  pull-off
| ~  vibrato
| +  harmonic
| x  Mute note
===============================================================================
Comments