Korn - Porno Creep Chords & Tabs

 

Porno Creep Chords & Tabs

Korn Chords & Tabs

Version: 3 Type: Bass Tab 0 ratings
1 star 2 stars 3 stars 4 stars 5 stars
comments

Porno Creep Bass Tab

By sr. Mota granpesadilla@hotmail.com

Hi, this tab i did it for love to KoRn
Korn - Porno creep - life is peachy album


[ Tab from: http://www.guitartabs.cc/tabs/k/korn/porno_creep_btab_ver_3.html ]
G|-------------------------0-2-0--|
D|-------0-3----------0--3-------3|
A|--0-0-3------0--0--3------------|
E|--------------------------------|

repeat (no pause)

G|-------------------------0-2-0--|
D|-------0-3----------0--3-------3|
A|--0-0-3------0--0--3------------|
E|--------------------------------|



this is simple,only go with the rhytm :)
Viva mexico
Comments