Korn - Porno Creep Chords & Tabs

 

Porno Creep Chords & Tabs

Korn Chords & Tabs

Version: 1 Type: Bass Tab 0 ratings
1 star 2 stars 3 stars 4 stars 5 stars
comments

Porno Creep Bass Tab

#-----------------------------------------------------------------------------#
#-- File created with Instab - http://www.pconline.com/~smcarey/instab.html --#
#-----------------------------------------------------------------------------#

Author/Artist: KORN
Title: PORNO CREEP
Album: LIFE IS PEACHY
Transcribed by: CHRIS
Email: SOUNDGEARBOMBER@USERS.BASSTABARCHIVE.COM

tune all strings down full step

----------------------|-------------------------------------------------------
----------------------|------------------------------7------------------------
--------------------/5|------------------5-----7---------5--------------------
-----------5--7-------|-----------5--7----------------------5-----------------
---5/7----------------|----5/7------------------------------------------------
-5--------------------|-5-----------------------------------------------------
  riff 1                    riff 2                                            

-----------------------------------------|------------------------------------
-----------------------------------------|------------------------------------
-----------------------------------------|------------------------------------
-----------5--7---------7--5------------5|-----------------------5/7p5--------
----5/7-----------------------7----5-7---|---------3---5-5h6h7----------5-----
-5-----------------5---------------------|-3h4h5------------------------------
            riff 3                         riff 4                             
[ Tab from: http://www.guitartabs.cc/tabs/k/korn/porno_creep_btab.html ]
------------------------|----------------------------------------------|------
------------------------|--9--7----------------------------------------|------
------------------------|----------9----8----7-------------------------|------
---5h7------------------|----------------------------------------------|------
----------5h7-----------|--------------------------------3h4h5b^-------|------
----------------3h5--5h6|--------------------------3h4h5---------------|------
    riff 5                  riff 6                         bend 1/4 step      

------------------------------------|-----------------------------------------
------------------------------------|-----------------------------------------
---------9---8---7----6---5----4---3|-----------------------------------------
-7h8h9------------------------------|-----------------------------------------
------------------------------------|-----------------------------------------
------------------------------------|-----------------------------------------
       riff 7                                                                 

--------------------------------------------------|---------------------------
--------------------------------------------------|---------------------------
--------------------------------------------------|---------------------------
-----------5--7---------7--5---------5h7-------5h7|---------------------------
-----5/7----------------------7--5h7------5h7-----|---------------------------
-5------------------5-----------------------------|---------------------------
 riff 8                                                                       

-------------------------------|----------------------------------------------
-------------------------------|-----------------9----------------------------
-------------------------------|----------7h9---------------------------------
------------------5h6h7---7h8h9|----------------------------------------------
--3h4h5---5h6h7----------------|-0--------------------------------------------
-------------------------------|----------------------------------------------
 riff 9                            outro                                      



Comments