Korn - Play Me Chords & Tabs

 

Play Me Chords & Tabs

Korn Chords & Tabs

Version: 4 Type: Tab 0 ratings
1 star 2 stars 3 stars 4 stars 5 stars
comments

Play Me Tab

   
Band- Korn
Song- Play Me

Intro: 4x  very weird effects and bass starts it out
D|---------|
A|-0-0-1-0-|

Intro: the intro might not me in power chords and it might just be the distortion so u 
just do which ever is best.
D|---------------------|
A|---------------------|
F|---------------------|
C|---------------------|
G|---------------------|
D|-4-3-2-2-3-2-2-2-3-2-|
A|-2-1-0-0-1-0-0-0-1-0-|

Verse:
D|------------------------------------------------|
A|------------------------------------------------|
F|------------------------------------------------|
C|------------------------------------------------|
G|------------------------------------------------|
D|------------------------------------------------|
A|-0-0-1-0---0-0-1-0---0-0-1-0---0-0-2-1-0�-|

Chorus:
D|--------------------------|
A|--------------------------|
G|--------------------------|
C|---------5---------4------|
G|---------5---------4------|
D|-2-4-5-2-3-2-4-5-2-2------|
A|-0-2-3-0---0-2-3-0�-|
[ Tab from: http://www.guitartabs.cc/tabs/k/korn/play_me_tab_ver_4.html ]
Bridge: this is with weird effect maybe chorus and phaser well u figure that out.
d|------------------------------------------------------|
a|------------------------------------------------------|
F|------------------------------------------------------|
C|----(11)/12-11---(11)/12-11---(11)//13-14---(11)///14-|
G|-10------------9------------8------------(9)----------|
D|------------------------------------------------------|
A|------------------------------------------------------|

Bridge guitar 2
d|-------------------------------------------------------|
a|-------------------------------------------------------|
F|-12^-12-13^-13-15^-15-17^-17-12^-12-13^-13-10^-10-9^-9-|
C|-------------------------------------------------------|	(Guitar2)
G|-------------------------------------------------------|
D|-------------------------------------------------------|
A|-------------------------------------------------------|
Fill3:
d|------------------------------------------------------|
a|------------------------------------------------------|
F|-12^-12-13^-13-15^-15-17^-17^-17^-17^-17^-17^-17^-17^-|
C|------------------------------------------------------|	(Guitar2)
G|------------------------------------------------------|
D|------------------------------------------------------|
A|------------------------------------------------------|

Interlude:
D|-----------|
A|-----------|
F|-----------|
C|-----------|
G|-----------|
D|-----------|
A|-0-0-2-1-0-|
The ourto just the verse

ENJOY!!!!!
Comments