Korn - One Chords & Tabs

 

One Chords & Tabs

Korn Chords & Tabs

Version: 4 Type: Tab 0 ratings
1 star 2 stars 3 stars 4 stars 5 stars
comments

One Tab

   
Band: KoRn
Song: One (Metallica Cover)
Album: Take a Look in the Mirror (Secret Track at the end of the album.)
Tabbed by: Pooeater 
Tuning: DGCFAd (Dropped one whole step)

p= pull off
h= hammer on
b= bend
/= slide

Okay everyone, this is the KORN VERSION of this song.  It has many significant
diffences from the original Metallica version.  It is shortened a whole lot and
alot of parts are either changed, or just left out.  KoRn also plays 7 string
guitars but this song works on 6 and everyone plays 6 so it's okay.

Intro: Guitar 2 (Munky)

d|--------------|--------------|--------------|--------------|-------------|
A|--------------|--------------|--------------|--------------|-------------|
F|--------------|--------------|--------------|-----------0--|-(0)---------|
C|-----4-----0--|----4-----0---|-----4-----0--|----4----0----|----4-----0--|
G|--2-----2-----|--------------|--2-----2-----|--------------|--2----2-----|
D|--------------|--3----3------|--------------|--3----3------|-------------|

d|--------------|--------------|--------------|
A|--------------|--------------|--------------|
F|--------------|--------------|--------------|
C|-----4-----0--|----4----0----|--------------|
G|--0-----0-----|--------------|-----2-----2--|
D|--------------|--3----3------|--0-----2-----|

d|--------------|--------------|--------------|--------------|-------------|
A|--------------|--------------|--------------|--------------|-------------|
F|--------------|--------------|--------------|-----------0--|-------------|
C|-----4-----0--|----4-----0---|-----4-----0--|----4----0----|----4-----0--|
G|--2-----2-----|--------------|--2-----2-----|--------------|--2----2-----|
D|--------------|--3----3------|--------------|--3----3------|-------------|

d|--------------|--------------|--------------|--------------|
A|--------------|--------------|--------------|--------------|
F|--------------|--------------|--------------|--------------|
C|-----4-----0--|----4----0----|--------------|--------------|
G|--0-----0-----|--------------|-----2-----2--|-----2--4--2--|
D|--------------|--3----3------|--0-----2-----|--0-----------|


Solo: Guitar 1 (Head)

d|--------------------------------------------------------------------------
A|---------------3p2----3p2----3--3p2-----7/5--5/3--3/2--2p0----------------
F|-------2--2/4b-----4------2---------4-----------------------2--2/4--------
C|--2/4---------------------------------------------------------------------
G|--------------------------------------------------------------------------
D|--------------------------------------------------------------------------

d|-------------------------------|
A|--0--2h3p2--0--2--3p2----------|
F|-----------------------2--2/4--|  That's all of the solo that Head plays.
C|-------------------------------|  He does not play the last part that is
G|-------------------------------|  in the original version.
D|-------------------------------|


Verse: Guitar 2 (Munky)

There are a few notes in the original version that KoRn doesn't play, so don't
think that I'm an idiot for leaving them out.

d|--------------------|--------------------|--------------------|
A|--------------------|--------------------|--------------------|
F|--------------------|--------------------|--------------------|
C|-----4--0--0--4--0--|----4--0--4--4--0---|-----4--0--0--4--0--|
G|--2-----------------|--------------------|--2-----------------|
D|--------------------|--3-----------------|--------------------|

d|--------------------|--------------------|--------------------|
A|--------------------|--------------------|--------------------|
F|--------------------|--------------------|-----------------0--|
C|----4--0--4--4--0---|-----4--0--0--4--0--|-----4--0--4--4-----|
G|--------------------|--2-----------------|--0-----------------|
D|--3-----------------|--------------------|--------------------|

d|--------------------|--------------------|
A|--------------------|--------------------|
F|-(0)----------------|--------------------|  
C|------4--0--0--4--0-|--------------------|  ( X2 )  
G|--------------------|-------2-------2----|
D|--3-----------------|---0-------2--------|


Verse: Guitar 1 (Head)

d|---------------------------------
A|---------------------------------
F|---------------------------------  
C|--4-------4-------4---6---7------  ( X2 )
G|--2---2---2---2---2---4---5------
D|------3-------3------------------


Chorus: (Hold my breath as I wish for death......) Both Guitars

d|-------------------------------------------------------------------------
A|-------------------------------------------------------------------------
F|-------------------------------------------------------------------------
C|------2---4---2---------------2---4---6---4---2---4---7--------------6---
G|--5---0---2---0---5---4---5---0---2---4---2---0---2---5---5----5555--4---
D|--3---------------3---2---3-------------------------------3----3333------

d|--------------------
A|--------------------
F|--------------------
C|--------5--------4--
G|--5555--3--5555--2--
D|--3333-----3333-----


AFTER YOU PLAY THE CHORUS WRITTEN ABOVE, PLAY THE VERSE AGAIN EXACTLY AS I WROTE
IT BEFORE.  JUST LISTEN TO THE SONG IF YOU NEED TO.

THEN PLAY THE CHORUS AGAIN.


Solo: Guitar 2 (Munky)

This solo was changed alot.  It was shortened and alot of notes were left out.
But, it's what they play so.......

d|--------------------------------------10--8--7--8p7-------17p14-----14--17
A|--10p7-----7--10--10--8--7--8p7----------------------8-----------15-------
F|--------7------------------------7----------------------------------------
C|--------------------------------------------------------------------------
G|--------------------------------------------------------------------------
D|--------------------------------------------------------------------------

d|--17--15--14--15p14---------15--17---19p17p15--19p17p15--19p17p15---------
A|---------------------15--19-----------------------------------------------
F|--------------------------------------------------------------------------
C|--------------------------------------------------------------------------
G|--------------------------------------------------------------------------
D|--------------------------------------------------------------------------
[ Tab from: http://www.guitartabs.cc/tabs/k/korn/one_tab_ver_4.html ]
d|--19p17p15---14--15-----14-----
A|---------------------17----15--
F|-------------------------------
C|-------------------------------
G|-------------------------------
D|-------------------------------

Chorus: Both Guitars.

Now this riff of the chours is just slightly different.  (Now the world is gone
I'm just one......) It is just like the "Hold my breath as I wish for death" part
but with one chord left out. Anyway, here it is.

d|----------------------------------------------------------------------
A|----------------------------------------------------------------------
F|----------------------------------------------------------------------
C|------2---4---2---------------2---4---6---4---2---7---7---------------
G|--5---0---2---0---5---4---5---0---2---4---2---0---5---5---------------
D|--3---------------3---2---3-------------------------------------------

Now here is the regular chorus riff with a slightly different ending.  The line
in the tabs shows where the new ending is.

d|---------------------------------------------------------|----------------
A|---------------------------------------------------------|----------------
F|---------------------------------------------------------|----------------
C|------2---4---2---------------2---4---6---4---2---4---7--|-----2---4---2--
G|--5---0---2---0---5---4---5---0---2---4---2---0---2---5--|-5---0---2---0--
D|--3---------------3---2---3------------------------------|-3--------------

d|----------------
A|----------------
F|----------------
C|----------6-----
G|--5---4---4-----
D|--3---2---------

Now comes that part before the "Darkness imprissoning me" part.

Guitar 1 (Head)

d|----------------------------------------------
A|----------------------------------------------
F|----------------------------------------------
C|--2--0--2--0------4--4----4-----5--5----5-----
G|--3--2--3--0--2---2--2----2-----3--3----3-----
D|--------------3---------2----2--------3----3--

Guitar 2 (Munky)

d|----------------------------------------------
A|----------------------------------------------
F|----------------------------------------------
C|--2--0--2--5--5---4-------------5-------------
G|--3--2--3--6--6---2-------------3-------------
D|----------------------------------------------

Guitar 1 (Head)

d|----------------------------------------------
A|----------------------------------------------
F|----------------------------------------------
C|--2--0--2--0------4--4----4-----5--5----5-----
G|--3--2--3--0--2---2--2----2-----3--3----3-----
D|--------------3---------2----2--------3----3--

Guitar 2 (Munky)

d|----------------------------------------------
A|----------------------------------------------
F|----------------------------------------------
C|--2--0--2--0------4-------------5-------------
G|--3--2--3--0--2---2-------------3-------------
D|--------------3-------------------------------

Guitar 1

d|----------------------------------------------------
A|----------------------------------------------------
F|----------------------------------------------------
C|--555-7--5---------44--------4------5-555-----5-----
G|--777-7--7---------22--------2------3-333-----3-----
D|-------------2222------2--2-----2----------3-----3--

Guitar 2

d|----------------------------------------------------
A|----------------------------------------------------
F|----------------------------------------------------
C|--4---------------4----------4------5-555-----5-----
G|--2---------------2----------2------3-333-----3-----
D|-------------2222------2--2-----2----------3-----3--

Guitar 1

d|-----------------------------------------------------
A|-----------------------------------------------------
F|-----------------------------------------------------
C|--555-7--5---------44---------4------5-555-----5-----
G|--777-7--7---------22---------2------3-333-----3-----
D|-------------2222------2--2------2----------3-----3--

Guitar 2

d|----------------------------------------------------
A|----------------------------------------------------
F|----------------------------------------------------
C|--4---------------4----------4------5-555-----5-----
G|--2---------------2----------2------3-333-----3-----
D|-------------2222------2--2-----2----------3-----3--


"Darkness" Riff: Both Guitars

This riff is also differnt from the original.  Metallica plays two sets of
triplets open on the top string and then the power chord.  Korn just plays the
top string four times open and then the power chord.

d|--------------------------------------------------------------------------
A|--------------------------------------------------------------------------
F|--------------------------------------------------------------------------
C|--------------------------------------------------------------------------
G|-------2--------2--------2--------2--------2--------2--------2--------23--
D|--0000-0---0000-0---0000-0---0000-0---0000-0---0000-0---0000-0---0000-00--


d|--------------------------------------------------------------------------
A|--------------------------------------------------------------------------
F|--------------------------------------------------------------------------
C|--------------------------------------------------------------------------
G|-------2--------2--------2--------23-------2--------2--------2--------23--
D|--0000-0---0000-0---0000-0---0000-00--0000-0---0000-0---0000-0---0000-00--


RIGHT HERE THE RIFF BREAKS OFF INTO TWO GUITAR PARTS.

Guitar 2 (Munky)

d|--------------------------------------------------------------------------
A|--------------------------------------------------------------------------
F|--------------------------------------------------------------------------
C|--------------------------------------------------------------------------
G|-------7-------7-8------5-------5-8-------7-------7-8------5-------5------
D|--0000----0000-----0000---0000------0000----0000-----0000----0000----7----

Guitar 1 (Head)

d|--------------------------------------------------------------------------
A|--------------------------------------------------------------------------
F|--------------------------------------------------------------------------
C|--------------------------------------------------------------------------
G|------2--------23--------2--------23--------2--------23--------2-------23-
D|-0000-0---0000-00---0000-0---0000-00---0000-0---0000-00---0000-0--0000-00-


That's it really, ending is just like this, you can probably figure it out
yourself. Kird ape is god.
Comments