Korn - One More Time Chords & Tabs

 

One More Time Chords & Tabs

Korn Chords & Tabs

Version: 1 Type: Bass Tab 0 ratings
1 star 2 stars 3 stars 4 stars 5 stars
comments

One More Time Bass Tab

Korn - One More Time
Tabbed By: Fieldy
Reclaim My Place

This song is kinda tricky and its really fast. Use a 5 string bass 
and tune it down to ADGBE

E-----x-x-----x-x-----x-x-|
G-----x-x-----x-x-----x-x-|
G-----x-x-----x-x-----x-x-|
D-----x-x-----x-x-----x-x-|
A-1-0-----0-0-----0-0-----|


E----x-x----x-x-----|
B----x-x--x-x-x-----|
G----x-x--x-x-x-----|
D-1--x-x-x--x-x-1---|
A-----------------1-|
[ Tab from: http://www.guitartabs.cc/tabs/k/korn/one_more_time_btab.html ]
E------------------------------|
B------------------------------|
G------------------------------|
D------------------------------|
A-12-13-14-13-12---12-14-13-12-|

E-----------x-x-----x-x---|
B---------x-x-x---x-x-x---|
G---------x-x-x---x-x-x---|
D-------1---x-x-1---x-x-1-|
A-0-1-2-------------------|


It sounds like pretty much the whole song is slapped except when 
you play the parts with the multiple muted notes you have to do 
pull-offs
Comments