Korn - One Chords & Tabs

 

One Chords & Tabs

Korn Chords & Tabs

Version: 1 Type: Bass Tab 0 ratings
1 star 2 stars 3 stars 4 stars 5 stars
comments

One Bass Tab

Band- Korn
Song- One

c----------|------------|------|------------|-----------------||----4-------|
G----------|------------|------|------------|-----------------||------------|
D----------|------------|------|------------|---2---2---2---2-||-2----2-3-2-|
A----------|------------|------|------------|-----------------||------------|


C------------|----4---------|----------------------|
G------------|--------------|------------|A-D-G-C--|
D------------|-2----2-2h3-2-|----------------------|
A3----3-0-2-|--------------|-3----3-0-2------------|
  s    s   s   p    s s  s    s         s


|----4---------|---------------|------------------------|
|--------------|--------7-5----|------------------------|
|-2----2-2h3-2-|-0----0-----7-|---------------|A-D-G-C--|
|--------------|---------------|-3----3-0-2-3-----------|


|------------|------------||-------7-----------------|
|------------|------------||---7-----------|A-D-G-C--|
|----------4-|----5-----7-||-5---5---/7--------------|
|-0----0-2---|-3----3-5---||------------8------------|


|------------|------------|--------------|
|----5-------|----3---3---|-----2---2----|
|------------|------------|---2---2---2/-|A-D-G-C-
|-3----3-5-3-|-1----1---1-|-0------------|

|--------7-------|------------|--------------|
|----7-----------|----4-------|----3---3-----|
|-/5---5---/7----|------------|--------------|
|-------------8-|-3----3-5-3-|-1----1---1----|


                 1st, 2nd Verses

|-------------||-------4-----|-------------|
|-------------||o------------|-------------|A-D-G-C-
|--------2h3--||o-2------3-2-|-------------|
|-0----0------||-------------|-2----3-0-2--|

|---4--------|-------------|--------------|---------------|------------------------|
|------------|-------------|--------------|--------7-5----|--------------|A-D-G-C--|
|-2----2-3-2-|--------2h5--|-2----2-2h3-2-|-0----0-----7-|-------------------------|
|------------|-3--3-0------|--------------|---------------|-3----3-0-2-3-----------|

|-------------|------4-----|------------|--------------|--------------|
|-------------|------------|------------|--------------|--------------|A-D-G-C-
|---2-----2---|-2------3-2-|------------|-2----2-2h3-2-|--------0-2h5-|
|-0-----2-----|------------|-2----3-0-2-|--------------|-3----3-------|


|--------------|---------------|--------------|--------||-----------------------|
|--------------|--------7-5----|--------------|--------||-----------------------|
|-2----2-2h3-2-|-0----0-----7-|--------------|--------||--------2-------2-------|
|--------------|---------------|-3----3-0-2-3-|-0--2-0-||-3----5---5-3-2--------|

|-----------------------||------------------------|
|-----------------5---6-||-----7------------------|
|------2-4-2----3---4---||--5----5s7----|A-D-G-C--|
|-5----------5----------||-----------8------------|

|------------|------------|-------------|
|----5-------|----3---3---|-----2---2---|A-D-G-C-
|------------|------------|---2---2---2-|
|-3----3-5-3-|-1----1---1-|-0-----------|

|-------7-------|-------------|------------|--------------||-------7------------------|
|---7-----------|-----5-------|----3---3---|-------------o||---7------------|A-D-G-C--|
|-5---5---/7----|-------------|------------|--------2h3--o||-5---5---/7---------------|
|------------8-|-3----3-5-3-|-1----1---1-|-0----0-------||------------8---------------|

|------------|------------|-------------|-------7-----------------|
|----5-------|----3---3---|-----2---2---|---7---------------------|
|------------|------------|---2---2---2-|-5---5---/7----|A-D-G-C--|
|-3----3-5-3-|-1----1---1-|-0-----------|------------8------------|

|------------|------------|-------------------------|
|----5-------|----3---3---|-----2---2---------------|
|------------|------------|---2---2---2-------------|
|-3----3-5-3-|-1----1---1-|-0-------------A-D-G-C---|

|---------------------|---------------------|---------------------|
|---------------------|---------------------|---------------------|
|--------2---------3--|------2-4-2----2--4--|--------2---------2--|A-D-G-C-
|-3----3---5-3--3-----|-3----------5--------|-3----3---5-3--2-----|

|---------------------|-----------------------||
|---------------------|-----------------------||A-D-G-C-
|------2-4-2----2--4--|--------2---------2----||
|-5----------5--------|-3----5---5-3--2-------||

G------------|-------------|------------|------------|-------------|
D------------|-------------|------------|------------|-------------|A-D-G-C-
A----5-----5-|-------5-----|-2--2---2---|-3--3---3---|-----5---5---|
E-5----5-5---|-3-3-3---3-0-|------0---0-|------1---0-|-5-5---5---5-|

g-------------|------------|---------------|-------------|-------------|
d-------------|------------|---------------|-----7-------|-------------|
a-------------|-2--2---2-0-|-3-3-3-3---3---|---5---5-----|-------5-----|
e-3-3-3-5-3-0-|------0-----|---------1---0-|-5-------5-0-|-3-3-3---3-0-|
[ Tab from: http://www.guitartabs.cc/tabs/k/korn/one_btab.html ]
|------------|-------------|-------------|-------------|-------------|
|------------|-------------|-----7-------|-------------|-------------|
|-2--2---2---|-3-3-3---3---|---5---5-----|-------------|-2--2---2-0--|
|------0---0-|-------1---0-|-5-------5-0-|-3-3-3-5-3-0-|------0------|

|--------------|-------------|-------------|------------|----------------|
|--------------|-------7-----|-------7-----|------------|----------------|
|-3-3-3-3---3/-|-7-7-7---7-0-|-5-5-5---5--|-2------2-0-|-3-3-3---3/------|
|---------1----|-------------|-------------|------0-----|-------1--------|

|--------------|-------------|------------|---------------|----------|-----------|
|--------7-----|-------7-----|------------|---------------|----------|-----------|
|-/7-7-7---7-0-|-5-5-5---5--|-2--2-0-2-0-|-3-3-3-3---3---|-7--------|-(7)--------|
|--------------|-------------|------------|---------1---0-|-0--------|-(0)-------|

|---------------------------------|
|---------------------------------|
|-------------7---------------7---|
|-0-0-0-0-0-0-0---0-0-0-0-0-0-0---|

|---------------------------------|--------------------------------||
|---------------------------------|--------------------------------||
|-------------7---------------7---|-------------7--------------7---||
|-0-0-0-0-0-0-0---0-0-0-0-0-0-0---|-0-0-0-0-0-0-0--0-0-0-0-0-0-0---||

||----------------------------------||-|
||o--------------------------------o||-|
||o-------------7------------------o||-|
||--0-0-0-0-0-0-0--0-0-0-0-0-0-0-1--||-|

||----------------------------------|-----------------------------------|
||o---------------------------------|-----------------------------------|
||o-------------7---------------7---|-------------7---------------7-----|
||--0-0-0-0-0-0-0---0-0-0-0-0-0-0---|-0-0-0-0-0-0-0---0-0-0-0-0-0-0-----|

|---------------------------------|
|---------------------------------|
|-------------7---------------7---|
|-0-0-0-0-0-0-0---0-0-0-0-0-0-0---|

|---------------------------------|--------------------------------|
|---------------------------------|--------------------------------|
|-------------7-------------------|-------------7--------------7s8-|
|-0-0-0-0-0-0-0---0-0-0-0-0-0-0-1-|-0-0-0-0-0-0----0-0-0-0-0-0-----|

|--------------------------------|--------------------------------|
|--------------------------------|--------------------------------|
|-------------5--------------5s8-|-------------7--------------7s8-|
|-0-0-0-0-0-0----0-0-0-0-0-0-----|-0-0-0-0-0-0----0-0-0-0-0-0-----|

|---------------------------------||
|--------------------------------o||
|-------------5--------------2---o||
|-0-0-0-0-0-0----0-0-0-0-0-0---1--||

||-----------------------|-------------------|
||o----------------------|-------------------|
||o-------------2--------|-------2--------3--|
||--0-0-0-0-0-0----0-0-0-|-0-0-0----0-0-0----|

|----------------------|--------------------|
|----------------------|--------------------|
|-------------2--------|-------2--------3---|
|-0-0-0-0-0-0----0-0-0-|-0-0-0----0-0-0-----|

|----------------------|-------------------|
|----------------------|-------------------|
|-------------2--------|-------2--------3--|
|-0-0-0-0-0-0----0-0-0-|-0-0-0----0-0-0----|

|----------------------|---------------------|
|----------------------|---------------------|
|-------------2--------|-------2--------3----|
|-0-0-0-0-0-0----0-0-0-|-0-0-0----0-0-0------|

|-----------------------|-----------------------|------------------------||
|-----------------------|-----------------------|-----------------------o||
|-7-7-7-7-7-7-7---7-7-7-|-7-7-7-7-7-7-7---7-7-7-|-7-7-7-7-7-7-7---7-7-7-o||
|-0-0-0-0-0-0-0---0-0-0-|-0-0-0-0-0-0-0---0-0-0-|-0-0-0-0-0-0-0---0-0-0--||

    4x
||-----------------------|--------------------||-|
||o----------------------|-------------------o||-|
||o-------------2--------|-------2--------3--o||-|
||--0-0-0-0-0-0----0-0-0-|-0-0-0----0-0-0-----||-|

||------------------------|-----------------------||
||o-----------------------|----------------------o||
||o-7-7-7-7-7-7-7---7-7-7-|-7-7-7-7-7-7-7---7-7-7o||
||--0-0-0-0-0-0-0---0-0-0-|-0-0-0-0-0-0-0---0-0-0-||

||--------------------|-------------------|
||o-------------------|-------------------|
||o-------------7--7--|-------------7--7--|
||--0-0-0-0-0-0-0--0--|-0-0-0-0-0-0-0--0--|

|-------------------|--------------------||
|-------------------|-------------------o||
|-------------------|-------------------o||A-D-G-C-
|-0-0-0-0-0-0-0--1--|-3-3-3-3-3-3-3--3---||

||--------------------|-------------------|
||o-------------------|-------------------|
||o-------------5--5--|-------------5--5--|A-D-G-C-
||--3-3-3-3-3-3-------|-3-3-3-3-3-3-------|

|-------------------|--------------------||
|-------------------|-------------------o||
|-------------5--5--|-------------------o||A-D-G-C-
|-3-3-3-3-3-3-------|-1-1-1-1-1-1-1--1---||

||----------------|---------------|-------------------|-------------------||
||o---------------|---------------|-------------------|------------------o||
||o---------------|---------------|-------------------|------------------o||
||--0-0-3--0-0-3--|-0-0-3--0-0-3--|-1-1-1-1-1-1-1--1--|-1-1-1-1-1-1-1--1--||
Comments