Korn - No Way Chords & Tabs

 

No Way Chords & Tabs

Korn Chords & Tabs

Version: 1 Type: Tab 0 ratings
1 star 2 stars 3 stars 4 stars 5 stars
comments

No Way Tab

   
No Way by KoRn
Guitarist: Munky + Head
Album: Issues
Dif.: 7
Tabbed by Twiggy5

NOTE: Tune down 1 whole step A D G C F A D

Intro/Verse (Gtr. 1) (w/ dist. + whammy pedal)
d|----0-15-15-14------|
a|--8-------------/7--| 4x

Intro 2/Chorus (Both Guitars)
A|----------------8-8-8-8-7--------| 8x
F|----------------5-5-5-5-4--------|
C|-5-5-5-5-4-----------------------|
G|-3-3-3-3-2-----------------------|
D|---------------------------------|
A|-------------------------------0--|

Bridge/Outro (Gtr. 1) (light. dist.)
D|-------------------2----|----------------3---2---|
A|--------------5---------|-3----------------------|
F|--4---------------------|------------------------|

Bridge (cont.)
D|-------------------2----|----------------2---3---|
A|--------------5---------|-3----------------------|
F|--4---------------------|------------------------|

End (Gtr. 2)
F|-4-----------------------|

Song Structre: -
Intro (Gtr. 1)
Intro 2 (Both Guitars)
Bass Guitar Shit
Verse (Gtr. 1) (“Lately things won’t go my way....”)
Chorus (Both Guitars) (“So I came too far...”)
More Bass Shit
Verse (Gtr. 1) (“So I’m angry for today...”)
Chorus (Both Guitars)
Bridge (Gtr. 1)
Intro (Gtr. 1) (“Wait to give them...”)
Chorus (Both Guitars)
Outro (Gtr. 1) (“To live this way......”)
End (Gtr. 2)
Wierd Noises
[ Tab from: http://www.guitartabs.cc/tabs/k/korn/no_way_tab.html ]
Very good song.... I think this album is totaly underrated, I mean if you think about 
it this really a fucking awseome album just as good as any other KoRn album 
just because they want to experiment with effects and move for a new sound every 
ablum doesn’t mean they sold out. I mean fuck people just don’t understand. 
Well if you have comments, corrections or suggestions email me at ToXic345x@yahoo.ca
===========          Blake Vollmer
          band;korn
          song:no way
          album:issues
          tuning:eadgbe
          intro
          
          
          ---0-15-15-14-
          -8------------7
          ---------------   
          ---------------
          ---------------
          ---------------
          
          riff A
          
          
          --------------------
          -----------8-8-8-8-7
          -----------5-5-5-5-4
          -5-5-5-5-4----------
          -3-3-3-3-2----------
          --------------------
          
          riff b
          
          ----2-3-2---2-2-3
          ---5-3----5--3---
          -4-------4-------
          -----------------
          -----------------
          -----------------
          u find out the order the song is really easy though

==

No Way - Guitar Tab
1 Transcription

-------------------------------------------------------------- 

Transcribed By: Sam Sensabaugh (BeatingMeDown@hotmail.com)

Tuned Down One Half Whole Step (DGCFAd)

(Intro and Verse)

(Guitars 1 and 2)
d ||------15--14----------------|
A ||--12----------11------------|
F ||----------------------------|
C ||----------------------------|
G ||----------------------------|
D ||----------------------------|(With Flanger or Phaser)

(Guitar 1)
d ||----------------------------|
A ||----------------------------|
F ||--5--5--5--5--4-------------|
C ||--5--5--5--5--4-------------|
G ||--3--3--3--3--2-------------|
D ||----------------------------|(Distortion)

(Guitar 2)
d ||--15--15--15--15--14--------|
A ||----------------------------|
F ||--12--12--12--12--11--------|
C ||----------------------------|
G ||----------------------------|
D ||----------------------------|(With Flanger or Phaser)


(Bridge:Part Where Jon Sings..."To live this way...")

(Guitar 1 or 2)
d ||----------------------------||----------------------------|
A ||----------------------------||----------------------------|
F ||--4--9--11--7--12--11--4----||--4--9--11--7--11--12--4----|
C ||----------------------------||----------------------------|
G ||----------------------------||----------------------------|
D ||----------------------------||----------------------------|(Clean)

(Outro:See Bridge)
Comments