Korn - No Way Chords & Tabs

 

No Way Chords & Tabs

Korn Chords & Tabs

Version: 3 Type: Bass Tab 0 ratings
1 star 2 stars 3 stars 4 stars 5 stars
comments

No Way Bass Tab

Hey whats up people
THis is my first time tabbing a song but its close.
Email me at Bloodlust7688@cs.com is you have any comments or etc.


Wait for guitar intro

F ||---------verse----------| 
C ||------------------------| 
G ||------------------------| 3 Times 
D ||------------------------| 
A ||--0-00--/13-------------| 
    Finger these notes 


Fourth time do this 

F ||-----------------------| 
C ||-----------------------| 
G ||-----------------------| 
D ||-------------------9---| 
A ||--0000-pause--/9-------|
 
Then guitar kicks in so just continue at the beginning
[ Tab from: http://www.guitartabs.cc/tabs/k/korn/no_way_btab_ver_3.html ]
     "So I came to far..."

F ||---------chorus--------| 
C ||-----------------------| 
G ||-----------------------| x4
D ||-----------------------| 
A ||--333-2-777-6-0--------| 

Slap strings again

Verse agian

Wait for guitar again......

"Wait to give them these feelings of hating.
F ||---------verse----------| 
C ||------------------------| 
G ||------------------------| 
D ||------------------------| 
A ||--0-00--/13-------------| 

F ||---------chorus--------| 
C ||-----------------------| 
G ||-----------------------| 
D ||-----------------------| 
A ||--333-2-777-6-0--------|
Comments