Korn - No Place To Hide Chords & Tabs

 

No Place To Hide Chords & Tabs

Korn Chords & Tabs

Version: 3 Type: Tab 0 ratings
1 star 2 stars 3 stars 4 stars 5 stars
comments

No Place To Hide Tab

   
Korn - No Place to Hide

Transcribed By: RipHead // jenda_head@o2.pl

7-string guitar
Tuning (A D G C F A D)

Intro (Mnky & Head)
d||-----------------------------------------||
a||-14h15-15h16-14h15-15h16-14h15h16--------|| <- Brian
F||-17h18-18h19-17h18-18h19-17h18h19--------|| <- Munky
C||-----------------------------------------||
G||-----------------------------------------||
D||-----------------------------------------||
A||-----------------------------------------||Distorion

Intro 2 & Bridge  (Munky & Brian)
d||------------------------------||
a||------------------------------||
F||------------------------------||
C||------------------------------||
G||------------------------------||
D||-3/4-4/5-5/6-6/7-7/8-8--------||
A||-1/2-2/3-3/4-4/5-5/6-6--------||Heavy Distortion

Verse (Brian)
d||-----------------------||
a||-18------18-----18-----||
F||-----16------16----18--||
C||-----------------------||
G||-----------------------||
D||-----------------------||
A||-----------------------||
[ Tab from: http://www.guitartabs.cc/tabs/k/korn/no_place_to_hide_tab_ver_3.html ]
Chorus (Munky & Brian)   (Munky)
d||-0----0----0-0------||-15^-||
a||-5----5----5-5------||-----||
F||-8----8----8-8------||-----||
C||--------------------||-----||
G||--------------------||-----||
D||--------------------||-----||
A||---00---00----------||-----||
pm    ..   ..


Pre-Bridge
d||------------------------------||
a||------------------------------||
F||------------------------------||
C||------------------------------||
G||------------------------------||
D||-3/4-4/5-5/6-6/7-7/8-8--------||
A||-1/2-2/3-3/4-4/5-5/6-6--------||Heavy Distortion

Bridge 2 (Brian)
d||---------------------------------------||
a||---------------------------------------||
F||---------------------------------------||
C||-13-----------14----------~------------||
G||-12-----------13-----------------------||
D||-11-----------12-----------------------||
A||-10-----------11-----------------------||Clean

Bridge 3 (Munky & Brian)
d||----------------------15^-------------------------------||
a||--------------------------------------------------------||
F||--------------------------------------------------------||
C||--------------------------------------------------------||
G||--------------------------------------------------------||
D||-2--2-2-2-2-2--2-2--2-----2--2-2-2-2-2--2-2--2----------||
A||-0--0-0-0-0-0--0-0--0-----0--0-0-0-0-0--0-0--0----------||Heavy Distortion
Comments