Korn - No Ones There Chords & Tabs

 

No Ones There Chords & Tabs

Korn Chords & Tabs

Version: 3 Type: Tab 0 ratings
1 star 2 stars 3 stars 4 stars 5 stars
comments

No Ones There Tab

   
---------------------------------------------------------------------------
			     No One's there - KORN
---------------------------------------------------------------------------
Tabbed by: Andrew Hedstrom
Email: Hedstrom_korn@hotmail.com

Tuning:A-D-G-C-F-A-D

i made this tab coz i was sick of the Bullsh!t tabs that were for the little solo.  i
was dissapointed to see that such an easy solo tricked people.  this is it, basically
100%.
[ Tab from: http://www.guitartabs.cc/tabs/k/korn/no_ones_there_tab_ver_3.html ]
Solo done by head usually.
D|---------------------------------------|
A|---------------------------------------|
F|-16--16--16--16--16--16--17-17--19-19--|
C|---14--14--14--14--14--14---15--17-17--|
G|---------------------------------------|
D|---------------------------------------|
A|---------------------------------------|

D|-----------------------------16----|
A|-------------------------------18--|
F|-16--16--16--16--16--16--17--------|
C|---14--14--14--14--14--14--15------|
G|-----------------------------------|
D|-----------------------------------|
A|-----------------------------------|

Listen to Cd for full timing.

this song really topped off a great album, Untouchables.
Comments