Korn - Need To Chords & Tabs

 

Need To Chords & Tabs

Korn Chords & Tabs

Version: 1 Type: Tab 0 ratings
1 star 2 stars 3 stars 4 stars 5 stars
comments

Need To Tab

#----------------------------------PLEASE NOTE---------------------------------#
#This file is the author's own work and represents their interpretation of the #
#song. You may only use this file for private study, scholarship, or research. #
#------------------------------------------------------------------------------##
Date: Wed, 25 Oct 1995 10:39:22 -0700 (PDT)
From: James Albers 
Subject: need_to.tab

Need to--Korn

Riff 1
d-------------------
a-------------------
F-------------------
C-------------------
G-------------------
D-------------------
A--13^---0--13^--0--

Riff 2
d-------------------
a-------------------		This also can be played on the eighth
F-------------------		fret on the "D" string with a similar 
C--16-------16------		pattern(D8-G9-C10-F11) [I did this by 
G--15-------15------		memory--check the notes to see if they're 
D--14-------14------		the same.
A--13----0--13---0--

Riff 2b
d-------------------
a-------------------            The zeroes in parentheses are representing
F-------------------            the overlapped sound of Riff 2. 
C--16//-----16//----            
G--15-------15------            // means tremolo picking. It mostly 
D-------------------            can be heard on the 16th fret.
A-------(0)-----(0)-

Riff 3
d-----------------------
a-----------------------
F-----------------------
C-----------------------
G--2---------5-4----3---
D--0----2--3-3-2----1---
A-------0--1------------

Riff4
d-----------------------
a-----------------------
F-----------------------
C-----------------------
G--2----------5--4--3---
D--0----------3--2--1---
A-----------------------
[ Tab from: http://www.guitartabs.cc/tabs/k/korn/need_to_tab.html ]
Riff 5
d-----------------------
a-----------------------
F-----------------------
C-----------------------
G--2------1-2--5--4--3--
D--0-321-0-----3--2--1--
A-----------------------

Riff 6
d-----------------------------
a-----------------------------
F-----------------------------
C--18-17-16----16-----16------
G--17-16-15----15-----15------
D--16-15-14----14-----14------
A--15-14-13-0--13--0--13--0---

Riff 6b(gtr2)
d----------------------------
a----------------------------		These tremolo pickings fall right 
F----------------------------		above the notes in Riff 6. The 
C--17//15//16//--16//--16//--		notes are purposely different for
G--16--14--15----15----15----		dissonance.
D--15--13--14----14----14----
A----------------------------

Order:
Riff 1(4x)
Riff 2(8x)		Listen to the album for the rhythm of the riffs.
Riff 2&2b(8x)			
Riff 1(8x)
Riff 2(4x)
Riff 2&2b(4x)
Riff 1(8x)
Riff 2(4x)
Riff 2&2b(4x)
Riff 3(4x)
Riff 4(4x0
Riff 5(2x)
Tacit-bass 
Riff 2(4x)
Riff 6&6b(2x0
Riff 3(4x)
Riff 2(8x)

----------------------------
I, I am confused, biting myself
Wanting to give in, needing your help
Skin cold with fear, fear in where we touch
Outside don't know you, inside I'm fucked

Him** you see it in me, skin cold from touch
It's the confronting of what I have done
You pull me closer I push you away
You tell me it's okay, I can't help but feel the pain

I hate you why are you taken
I love you why I feel so helpless
Why* hate you living my insides, each time mine with you
Why do I cry why do I really need to

Why (4x) Fuck you bitch
Need to, I need to, need to fuck,fuck,fuck,fuck

I hate you why are you taken
I love you why I feel so helpless
Why* hate you living my insides, each time mine with you
Why do I cry why do I fucking need to

Fuck (7x) slut
--------------------------
** he might be saying "Hit him", I'm not sure
*  sounds like "wife", but I'm also not sure

Comments