Korn - Need To Chords & Tabs

 

Need To Chords & Tabs

Korn Chords & Tabs

Version: 1 Type: Bass Tab 0 ratings
1 star 2 stars 3 stars 4 stars 5 stars
comments

Need To Bass Tab

   
-------------------
***Need To--Korn***
-------------------

Written by Korn

5-string bass in Dropped-A tuning (A,E,A,D,G)

s-Thumb slap
p-Pop

Verse:
[ Tab from: http://www.guitartabs.cc/tabs/k/korn/need_to_btab.html ]
G|------------------------------------------|
D|------------------------------------------|
A|------------------------------------------|
E|------------------------------------------|
A|--0--0--0--0--X--0--0--0---0--0--0--X--0--|
    s  s  s  s  s  s  s  s   s  s  s  s  s
    
G|-------------------|
D|--------7--7-------|
A|-------------------|
E|--------------3/5--|
A|--0--0-------------|
    s  s  p  p  s


Chorus:

A|-----------------------------------------|
E|-----X-----X--------X--------------------|
A|--X-----X-----X--X-----X--X--X--X--X--X--|
    s  s  s  s  s  s  s  s  s  s  s  s  s

 For this part, the bass follows the rhythm of the drums


Bridge:

A|--------------|  Play
E|--------------|
A|--3--2--1--0--|  Twice

A|------------------------------------|  Play
E|------------------------------------|
A|--3--2--1--0---0--3--2--1--0--2--3--|  Twice


Outro:

A|--------------------|
E|--------------------|
A|--1--0--1--0--X--X--|
    s  s  s  s  s  s


Comments