Korn - My Gift To You Chords & Tabs

 

My Gift To You Chords & Tabs

Korn Chords & Tabs

Version: 2 Type: Tab

My Gift To You Tab

   
KoRn - My Gift To You - Follow The Leader 

Tabbed by Elvisz (elvisz@kornkids.com)
Tuning : 7 String Tuned Low to High (A D G C F A D)

Vocal\Bagpipes: Jonathan Houseman Davis 'Hiv'
Guitar1: Brian Phillip Welch 'Head'
Guitar2: James Randal Shaffer 'Munky'
Bass: Reginald Arvizu 'Fieldy'
Drums: David Silveria


Intro:
d|-------------|
a|-------------|
F|-------------|
C|-------------|	(Guitar1 & Guitar2)
G|--7~~~~8--8--|
D|--7~~~~8--8--|
A|--5~~~~6--6--|

Fill1:(Guitar1 & Guitar2)
d|------------------------|
a|------------------------|
F|------------------------|
C|------------------------|	
G|--4-4-4--4-4-4--4-4-4-4-|
D|--4-4-4--4-4-4--4-4-4-4-|
A|--2-2-2--2-2-2--2-2-2-2-|

Verse:(Guitar1 & Guitar2)
d|---------------|------------|---------------|------------|
a|---------------|------------|---------------|------------|
F|---------------|------------|---------------|------------|
C|---------------|------------|---------------|------------|
G|--4-4-4--4-4-4-|---4-4-4-4--|--4-4-4--4-4-4-|---4-4-4-3--|
D|--4-4-4--4-4-4-|---4-4-4-4--|--4-4-4--4-4-4-|---4-4-4-3--|
A|--2-2-2--2-2-2-|---2-2-2-2--|--2-2-2--2-2-2-|---2-2-2-1--|

Fill2:(Guitar1 & Guitar2)
d|---------|
a|---------|
F|---------|
C|---------|
G|-4-4-3-2-|
D|-4-4-3-2-|
A|-2-2-1-0-|

Chorus:

d|------------------------|--------------------------|
a|----------0-----------0-|----------0------------0--|
F|------4-----------4-----|------4----------4--------|
C|--2-----------2---------|--3-----------0-----3-----|	(Guitar2)
G|------------------------|--------------------------|
D|------------------------|--------------------------|
A|------------------------|--------------------------|

d|------------------------|--------------------------|
a|------------------------|--------------------------|
F|------------------------|--------------------------|
C|------------------------|--------------------------|	(Guitar1)
G|--7~~~~~~~~~~~~~~~~~~~~~|~~8~~~~~~~~~~~5~~~~~8~~~~~|
D|--7~~~~~~~~~~~~~~~~~~~~~|~~8~~~~~~~~~~~5~~~~~8~~~~~|
A|--5~~~~~~~~~~~~~~~~~~~~~|~~6~~~~~~~~~~~3~~~~~6~~~~~|

Verse:(Guitar1 & Guitar2)
d|---------------|------------|---------------|------------|
a|---------------|------------|---------------|------------|
F|---------------|------------|---------------|------------|
C|---------------|------------|---------------|------------|
G|--4-4-4--4-4-4-|---4-4-4-4--|--4-4-4--4-4-4-|---4-4-4-3--|
D|--4-4-4--4-4-4-|---4-4-4-4--|--4-4-4--4-4-4-|---4-4-4-3--|
A|--2-2-2--2-2-2-|---2-2-2-2--|--2-2-2--2-2-2-|---2-2-2-1--|

Fill2:(Guitar1 & Guitar2)
d|---------|
a|---------|
F|---------|
C|---------|
G|-4-4-3-2-|
D|-4-4-3-2-|
A|-2-2-1-0-|

Chorus:
d|------------------------|--------------------------|
a|----------0-----------0-|----------0------------0--|
F|------4-----------4-----|------4----------4--------|
C|--2-----------2---------|--3-----------0-----3-----|	(Guitar2)
G|------------------------|--------------------------|
D|------------------------|--------------------------|
A|------------------------|--------------------------|

d|------------------------|--------------------------|
a|------------------------|--------------------------|
F|------------------------|--------------------------|
C|------------------------|--------------------------|	(Guitar1)
G|--7~~~~~~~~~~~~~~~~~~~~~|~~8~~~~~~~~~~~5~~~~~8~~~~~|
D|--7~~~~~~~~~~~~~~~~~~~~~|~~8~~~~~~~~~~~5~~~~~8~~~~~|
A|--5~~~~~~~~~~~~~~~~~~~~~|~~6~~~~~~~~~~~3~~~~~6~~~~~|

Bridge1:
d|-------------------|-----------------------|
a|-------------------|-----------------------|
F|-------------------|-----------------------|
C|-------4--------4--|-------4------4-----4--|	(Guitar2)
G|-------------------|-----------------------|
D|--2---------2------|--3--------0-----3-----|
A|-------------------|-----------------------|
[ Tab from: http://www.guitartabs.cc/tabs/k/korn/my_gift_to_you_tab_ver_2.html ]
d|--*7-----------|---------------|---------------|-----------*12-|
a|---------------|------------*7-|--*7-----------|---------------|
F|---------------|--------*5-----|---------------|---------------|
C|---------------|---------------|---------------|---------------| (Guitar1)
G|---------------|---------------|---------------|---------------| with 
D|---------------|---------------|---------------|---------------| natural
A|---------------|---------------|---------------|---------------| harmonics

Bridge2:
d|---------------|---------------|--------------|-------------|
a|---------------|---------------|--------------|-------------|
F|--13-----------|--14-----11----|--13----------|--14----/18--|
C|---x-----------|---x------x----|---x----------|---x------x--|	(Guitar2)
G|--11-----------|--12------9----|--11----------|--12----/16--|
D|---------------|---------------|--------------|-------------|
A|---------------|---------------|--------------|-------------|

d|---------------|---------------|--------------|-------------|
a|---------------|---------------|--------------|-------------|
F|---------------|---------------|--------------|-------------|
C|---------------|---------------|--------------|-------------|	(Guitar1)
G|--7------------|--8-----5--5-8-|--7-----------|--8----5-5-8-|
D|--7------------|--8-----5--5-8-|--7-----------|--8----5-5-8-|
A|--5------------|--6-----3--3-6-|--5-----------|--6----3-3-6-|

Fill3:
d|---------------|---------------|--------------|-------------|
a|---------------|---------------|--------------|-------------|
F|--10~~~~~~~~~--|---------------|--10~~~~~~~~--|-------------|
C|---x-----------|---------------|---x----------|-------------|	(Guitar2)
G|---8~~~~~~~~~--|---------------|---8~~~~~~~~--|-------------|
D|---------------|---------------|--------------|-------------|
A|---------------|---------------|--------------|-------------|

d|---------------|---------------|--------------|-------------|
a|---------------|---------------|--------------|-------------|
F|---------------|---------------|--------------|-------------|
C|--8-----8-8--8-|-9-----6-6-9-9-|--8----8-8--8-|-9---6-6-9-9-|	(Guitar1)
G|--7-----7-7--7-|-8-----5-5-8-8-|--7----7-7--7-|-8---5-5-8-8-|
D|--6-----6-6--6-|-7-----4-4-7-7-|--6----6-6--6-|-7---4-4-7-7-|
A|--5-----5-5--5-|-6-----3-3-6-6-|--5----5-5--5-|-6---3-3-6-6-|

Fill4:(Guitar1 & Guitar2)
d|---------------|-----------|
a|---------------|-----------|
F|---------------|-----------|
C|---------------|-----------|
G|--2-2-2--2-2-2-|---2-2-2-3-|
D|--2-2-2--2-2-2-|---2-2-2-3-|
A|--0-0-0--0-0-0-|---0-0-0-1-|

Verse:(Guitar1 & Guitar2)
d|---------------|------------|---------------|------------|
a|---------------|------------|---------------|------------|
F|---------------|------------|---------------|------------|
C|---------------|------------|---------------|------------|
G|--4-4-4--4-4-4-|---4-4-4-4--|--4-4-4--4-4-4-|---4-4-4-3--|
D|--4-4-4--4-4-4-|---4-4-4-4--|--4-4-4--4-4-4-|---4-4-4-3--|
A|--2-2-2--2-2-2-|---2-2-2-2--|--2-2-2--2-2-2-|---2-2-2-1--|

Chorus:
d|------------------------|--------------------------|
a|----------0-----------0-|----------0------------0--|
F|------4-----------4-----|------4----------4--------|
C|--2-----------2---------|--3-----------0-----3-----|	(Guitar2)
G|------------------------|--------------------------|
D|------------------------|--------------------------|
A|------------------------|--------------------------|

d|------------------------|--------------------------|
a|------------------------|--------------------------|
F|------------------------|--------------------------|
C|------------------------|--------------------------|	(Guitar1)
G|--7~~~~~~~~~~~~~~~~~~~~~|~~8~~~~~~~~~~~5~~~~~8~~~~~|
D|--7~~~~~~~~~~~~~~~~~~~~~|~~8~~~~~~~~~~~5~~~~~8~~~~~|
A|--5~~~~~~~~~~~~~~~~~~~~~|~~6~~~~~~~~~~~3~~~~~6~~~~~|

Fill5:(Guitar2)
d|-------------------------|------------------|
a|----------0-----------0--|--0~--------------|
F|------4-----------4------|--4~--------------|
C|--2-----------2----------|--3~--------------|
G|-------------------------|------------------|
D|-------------------------|------------------|
A|-------------------------|------------------|