Korn - My Gift To You Chords & Tabs

 

My Gift To You Chords & Tabs

Korn Chords & Tabs

Version: 2 Type: Bass Tab 0 ratings
1 star 2 stars 3 stars 4 stars 5 stars
comments

My Gift To You Bass Tab

Band - KoRn
Song - My Gift To You
Tabbed by - Justin "Twist" Matteson

Intro-
G|--------------------------------------------------------|
D|--------------------------------------------------------|
A|--------------------------------------------------------|
D|---0_____----------------------------1-1-1--0-----------|
A|--------------------------------------------------------|

Verse-

G|-------------------------------------------------------|
D|-------------------------------------------------------|
A|-------------------------------------------------------|
D|-------------------------------------------------------|
A|---222---22-2------2222---222---22-2------2221---------|

Chorus-
[ Tab from: http://www.guitartabs.cc/tabs/k/korn/my_gift_to_you_btab_ver_2.html ]
G|---------------------------------------------------|
D|---------------------------------------------------|
A|---------------------------------------------------|
D|--0-------1-------1--0--------1------1--0----------|
A|----------------2-------------------2--------------|

Heavy Part-
G|----------------------------------------------------------------|
D|----------------------------------------------------------------|
A|----------------------------------------------------------------|
D|--00--000--01-1--1----1-1---00--000--01-1---1------1-1---00-----|
A|------------------------2-2-------------------------------2-2---|

Bass is a little different once-
G|------------------------------------------------|
D|------------------------------------------------|
A|------------------------------------------------|
D|------------------------------------------------|
A|--000--0-00----0001----222--2-22----2-222-------|
Comments