Korn - Mr Rogers Chords & Tabs

 

Mr Rogers Chords & Tabs

Korn Chords & Tabs

Version: 1 Type: Tab 0 ratings
1 star 2 stars 3 stars 4 stars 5 stars
comments

Mr Rogers Tab

   
        WWW.EXTREMETABS.COM

          URL: www.extremetabs.com
	EMAIL: extremetabsdotcom@hotmail.com

	     SONG: Mr. Rogers
	     BAND: Korn
	    ALBUM: Life Is Peachy
   TRANSCRIBED BY: Billy Luisi
	     DATE: Unknown

	TUNING: tune your guitar as follows (A,D,G,C,F,A,D)



     RIFF 1:                    FILL 1:

    D|------------------------|----------|
    A|------------------------|----------|
    F|------------------------|----------|
    C|------------------------|----------|
    G|------------------------|----------|
    D|-----7-----7-------7----|-2--2--2--|
    A|-000---000----0-00------|-0--0--0--|
       pm.................      .......                                       

     RIFF 2: (with flange)

    D|------------------------|
    A|------------------------|
    F|------------------------|
    C|------------------------|
    G|------------------------|
    D|-2-2--6/7--1-2--6/7/8-8-|
    A|-0-0--4/5--3-0-04/5/6-6-|

     RIFF 3A: (gtr1)

    D|---------------------------------------x-|
    A|-----------------------------------------|
    F|-----------------------------------------|
    C|--------------------------x\~~~~~~~~~\---| @  = let ring out
    G|-9~~~~~~~~---x\~~~~~~~~\-----------------| x\ = pick scrapes
    D|-----------------------------------------|
    A|-0~~~~~~~~~------------------------------|
       @                                     $

     RIFF 3B: (gtr 2)
[ Tab from: http://www.guitartabs.cc/tabs/k/korn/mr_rogers_tab.html ]
    D|-------------------------------xx-x-xxx-x---|
    A|--------------------------------------------| $ = take pick side-ways
    F|--------------------------------------------| and jab into strings
    C|--------------------------------------------| but move down towards
    G|-9~~~~~~~~~~----------------------9-9---9---| the neck after each hit
    D|-------------x\~~~~\--x\~~~~\---------------| very hard to transcribe
    A|-0~~~~~~~~~---------------------------------| the picking pattern
       @                             $.*.*...*.$    * = pick notes  

     VERSE/RIFF 4A: (gtr 1)
                          
    D|---------------------|
    A|---------------------|
    F|---------------------|
    C|---------------------|
    G|---------------------|
    D|---------------------|
    A|-0000---000-0--000-0-|
       pm..   ... .  ... .

     VERSE/RIFF 4B: (gtr 2)

    D|-----------------------|
    A|-----------------------|
    F|-----------------------|
    C|-----11-10-------------| = only played last time before
    G|-9----------8p9p8--8^--|    chorus 
    D|-----------------------|
    A|-----------------------|      
                         

     RIFF 5B:  "Be my neighbor.." (gtr1)

    D|----------------------------|
    A|----------------------------|
    F|----------------------------|
    C|----------------------------|
    G|----------------------------|
    D|----------------------------|
    A|-0000--0000---0000--00-00---|
       pm..  ....   ....  .. ..

     RIFF 5A:  "Be my neighbor.." (gtr2)

    D|-----------------------------------------|
    A|---------------------9------/14----------| ~~~/ = ring out
    F|--------------<7>------------------------|
    C|-----------------------------------------|
    G|-9~~~~~~~~~~/----------------------------|
    D|-7~~~~~~~~~~/----------------------------|
    A|-0~~~~~~~~~~/----------------------------|
Comments