Korn - Make Me Bad Chords & Tabs

 

Make Me Bad Chords & Tabs

Korn Chords & Tabs

Version: 8 Type: Tab 0 ratings
1 star 2 stars 3 stars 4 stars 5 stars
comments

Make Me Bad Tab

band-korn
song-make me bad


Intro:(Guitar2)

d|-14-----15-14----|
a|---12---------12-|
F|-----------------|
C|-----------------|
G|-----------------|
D|-----------------|
A|-----------------|

Verse:(Guitar1 & Guitar2)

d|------------------|
a|------------------|
F|------------------|
C|-5\4-5\4---4---5~-|
G|------------------|
D|-3\2-3\2---2---3~-|
A|---------0---0----|

Pre-Chorus:

d|-14-----15-14----|
a|---12---------12-|
F|-----------------|
C|-----------------|	(Guitar2)
G|-----------------|
D|-----------------|
A|-----------------|

d|------------------|------------------|
a|----------7-----7-|----------7-----7-|
F|----5--------5----|----5--------5----|
C|-7-----6----------|-7-----6----------|	(Guitar1)
G|------------------|------------------|
D|------------------|------------------|
A|------------------|------------------|

Chorus:

d|--------------------|--------------------|
a|--------------------|--------------------|
F|--------------------|--------------------|
C|-2--33--2-----------|-2--33--2-----------|	(Guitar1)
G|-2--33--2--3---2----|-2--33--2--3---2----|
D|-0--11--0--3---2----|-0--11--0--3---2----|
A|-----------1---0----|-----------1---0----|

(Guitar2)
d|-------------------------------------|------------------------------------------|
a|-------------------------------------|------------------------------------------|
F|-------------------------------------|------------------------------------------|
C|-444444-222222-111111111111-9--------|--------------111111111111-9--------------|
G|-444444-222222-111111111111-9--9-10-9|999999-777777-111111111111-9--9/10--9/10\9|
D|-222222-000000-9-9-9-9-9-9--7--9-10-9|999999-777777-9-9-9-9-9-9--7--9/10--9/10\9|
A|-------------------------------7-8--7|777777-555555-----------------7/8---7/8-\7|

Pre-Chorus:

d|-14-----15-14----|
a|---12---------12-|
F|-----------------|
C|-----------------|	(Guitar2)
G|-----------------|
D|-----------------|
A|-----------------|

d|------------------|------------------|
a|----------7-----7-|----------7-----7-|
F|----5--------5----|----5--------5----|
C|-7-----6----------|-7-----6----------|	(Guitar1)
G|------------------|------------------|
D|------------------|------------------|
A|------------------|------------------|

Chorus:
[ Tab from: http://www.guitartabs.cc/tabs/k/korn/make_me_bad_tab_ver_8.html ]
d|--------------------|--------------------|
a|--------------------|--------------------|
F|--------------------|--------------------|
C|-2--33--2-----------|-2--33--2-----------|	(Guitar1)
G|-2--33--2--3---2----|-2--33--2--3---2----|
D|-0--11--0--3---2----|-0--11--0--3---2----|
A|-----------1---0----|-----------1---0----|

(Guitar2)
d|-------------------------------------|------------------------------------------|
a|-------------------------------------|------------------------------------------|
F|-------------------------------------|------------------------------------------|
C|-444444-222222-111111111111-9--------|--------------111111111111-9--------------|
G|-444444-222222-111111111111-9--9-10-9|999999-777777-111111111111-9--9/10--9/10\9|
D|-222222-000000-9-9-9-9-9-9--7--9-10-9|999999-777777-9-9-9-9-9-9--7--9/10--9/10\9|
A|-------------------------------7-8--7|777777-555555-----------------7/8---7/8-\7|

Bridge:

d|-8888--------8888---------|
a|-8888--------8888---------|
F|-5555--------5555---------|
C|--------------------------|	(Guitar2)
G|--------------------------|
D|--------------------------|
A|--------------------------|

d|--------------------------|
a|--------------------------|
F|--------------------------|
C|------5\4-X---------5\4-X-|	(Guitar1)
G|----------X-------------X-|
D|------3\2-X---------3\2-X-|
A|--------------------------|

Verse:(Guitar1 & Guitar2)

d|------------------|
a|------------------|
F|------------------|
C|-5\4-5\4---4---5~-|
G|------------------|
D|-3\2-3\2---2---3~-|
A|---------0---0----|

Chorus:

d|--------------------|--------------------|
a|--------------------|--------------------|
F|--------------------|--------------------|
C|-2--33--2-----------|-2--33--2-----------|	(Guitar1)
G|-2--33--2--3---2----|-2--33--2--3---2----|
D|-0--11--0--3---2----|-0--11--0--3---2----|
A|-----------1---0----|-----------1---0----|

(Guitar2)
d|-------------------------------------|------------------------------------------|
a|-------------------------------------|------------------------------------------|
F|-------------------------------------|------------------------------------------|
C|-444444-222222-111111111111-9--------|--------------111111111111-9--------------|
G|-444444-222222-111111111111-9--9-10-9|999999-777777-111111111111-9--9/10--9/10\9|
D|-222222-000000-9-9-9-9-9-9--7--9-10-9|999999-777777-9-9-9-9-9-9--7--9/10--9/10\9|
A|-------------------------------7-8--7|777777-555555-----------------7/8---7/8-\7|
Comments