Korn - Make Me Bad Chords & Tabs

 

Make Me Bad Chords & Tabs

Korn Chords & Tabs

Version: 6 Type: Tab 0 ratings
1 star 2 stars 3 stars 4 stars 5 stars
comments

Make Me Bad Tab

- use 2 7-strings or you can tune down to B
-this was a very confusing song and the only reason why i attempted to tab
it was because i discovered that using the microsoft audio mixer i could
cancel out one guitar and listen to the other guitar.this was extremely
helpful in tabing this song. a tip for every that reads this tab and also
makes tabs themselves, try using the same software that i used because you
can hear things that are so close to being muted they arent there but yet
they make that song much more accurate. there is also better software that
you may find on the internet perhaps but try it sometime, it helps so much.

INTRO
Guitar 1:
E|-----13-------------13----------------------------------------------------|
B|-----17-------------------17----------------------------------------------|
G|-----14-----------------------------14------------------------------------|
D|--------------------------------------------------------------------------|
A|--------------------------------------------------------------------------|
E|--------------------------------------------------------------------------|
B|--------------------------------------------------------------------------|

PRECHORUS
Both Guitars:
E|--------------------------------------------------------------------------|
B|--------------------------------------------------------------------------|
G|--------------------------------------------------------------------------|
D|---------------------------17---------------------------------------------|
A|---------------------------15---------------------------------------------|
E|--15/14/15/14-----14-------16---------------------------------------------|
B|--13/12/13/12--0--12--0---------------------------------------------------|
[ Tab from: http://www.guitartabs.cc/tabs/k/korn/make_me_bad_tab_ver_6.html ]
VERSE:                          half way through
Guitar 1:                             V
E|----13-----13---------------------|--13--------------13-------------------|
B|----17-----------17---------------|--17------17---------------------------|
G|----14-----------------14---------|--14----------------------14-----------|
D|----------------------------------|---------------------------------------|
A|----------------------------------|---------------------------------------|
E|----------------------------------|---------------------------------------|
B|----------------------------------|---------------------------------------|
Guitar 2:
E|--------------------------------------------------------------------------|
B|--------------------------------------------------------------------------|
G|--------------------------------------------------------------------------|
D|3/5---3/6---3/7---3/8---3/9---3/10---3/11---3/12--------------------------|
A|x/x---x/x---x/x---x/x---x/x---x/x----x/x----x/x---------------------------|
E|1/3---1/4---1/5---1/6---1/7---1/8----1/9----1/10--------------------------|
B|--------------------------------------------------------------------------|
-this part is weird and im not sure what he is exactly doin but i think its a
combinatoin of sliding the chord he's playing higher and also increasing
volume,even sounds like he's using a wha sometimes too. i'm not sure though it
could be anything. play this with a lot of distortion and very little volume
atleast in the begining of it.also, slide it very slow, the timimng has to be the
same on each slide.play this part somewhere around the middle, listen to see
when.its more visible further then when you are supposed 2 play so listen closely
to see when it really starts
CHORUS
Guitar 1:
E|--------------------------------------------------------------------------|
B|--------------------------------------------------------------------------|
G|--------------------------------------------------------------------------|
D|-9----10---7---6---5-----9/10/9---10---7---6---5--------------------------|
A|-9----10---7---6---5-----9/10/9---10---7---6---5--------------------------|
E|-7----8----5---4---3-----7/8-/7---8----5---4---3--------------------------|
B|--------------------------------------------------------------------------|
Guitar 2:
E|--------------------------------------------------------------------------|
B|--------------------------------------------------------------------------|
G|-9---------7---------10-------5----------9--------7-----10/11/10--5-------|
D|-x---------x---------x--------x----------x--------x-----x-/x-/x---x-------|
A|-7---------5---------8--------3----------7--------5-----8-/9-/8---3-------|
E|--------------------------------------------------------------------------|
B|--------------------------------------------------------------------------|

BRIDGE:
Guitar 1:
E|--------------------------------------------------------------------------|
B|--------------------------------------------------------------------------|
G|---------(14)-------------(14)--------------(14)-------------(14)---------|
D|--17-17------------17-17------------17-17-------------17-17-----(12)------|
A|--15-15-----(12)---15-15-----(12)---15-15------(12)---15-15---------------|
E|--16-16------------16-16------------16-16-------------16-16---------------|
B|--------------------------------------------------------------------------|
-the (14) and (12) are there but it doesnt make any difference if u play them or
not. i'm not even sure how he makes them sound the way they do with a wip kinda
noise idno its hard to explain just listen and mayb you can figure it out.the two
guitars take turns playing there part of the bridge and they kind of intertwine
with each other,listen for the timing on that.also, for the last chorus it sounds
like guitar one keeps playing this pattern while guitar 2 plays the normal
chorus.as you might have noticed, the chord in the bridge is the same as in the
chorus, so each time the chorus is played it should match up with this pattern,
listen to it for the timing.
Guitar 2:
E|--------------------------------------------------------------------------|
B|--------------------------------------------------------------------------|
G|--------------------------------------------------------------------------|
D|--------------------------------------------------------------------------|
A|-------11-11-------------11-11------------11-11-------------11-11---------|
E|-------10-9--------------10-9-------------10-9--------------10-9----------|
B|--------------------------------------------------------------------------|
Comments