Korn - Make Me Bad Chords & Tabs

 

Make Me Bad Chords & Tabs

Korn Chords & Tabs

Version: 2 Type: Tab 0 ratings
1 star 2 stars 3 stars 4 stars 5 stars
comments

Make Me Bad Tab

korn, make me bad
charles a. allred, allred@westex.net
group: korn
song: make me bad
album: issues
tuning: (low to high) ADGCFAD
------------------------------------------------------
Transcribed by Qwirk Allred (allred@westex.net)

1ST PART OF INTRO AND VERSES
-this is played with one of their wierd effects pedals
D||--15------15-14-------||
A||-----12---------12----||
F||----------------------||
C||----------------------||
G||----------------------||
D||----------------------||
A||----------------------||

2ND PART OF BEGINNIG AND MIDDLE
-with normal distortion, guitar 1 plays this
D||------------------||
A||------------------||
F||------------------||
C||------------------||
G||------------------||
D||--8-7-8-7---7--8--||
A||----------0--0----||

guitar 2 plays this
D||-------------------||
A||-------------------||
F||-------------------||
C||-------------------||
G||-------------------||
D||--8-7-8-7---7---4--||
A||----------0---0----||
[ Tab from: http://www.guitartabs.cc/tabs/k/korn/make_me_bad_tab_ver_2.html ]
There is one part of the verses that this is played like this
D||--15------14-15-----||
A||-----12---------12--||
F||--------------------||
C||--------------------||
G||--------------------||
D||--------------------||
A||--------------------||
-the verse melodies are followed by some pick scratching by guitar 2

-at the end of the verses this is played with a wah pedal, first softly then louder
D||----------------------------------------------||
A||----------------------------------------------||
F||----------------------------------------------||
C||----------------------------------------------||
G||-------------------------------------------0--||
D||--0-0-0-0-1--0-0-0-0-1--0-0-0-0-1--0-0-0-1----||
A||----------------------------------------------||

CHORUS
-with distortion
D||-------------||
A||-------------||
F||-------------||
C||-------------||
G||--2-3-2------||
D||--0-1-0-3-2--||
A||--------1-0--||

-this is played after the second chorus. these notes are followed by some more long pick scratching
D||--8-8------||
A||-----------||
F||-----------||
C||-----------||
G||-----------||
D||------8-8--||
A||-----------||

i transcribed this song for a 7-string guitar. if you want the 6-string version e-mail me at my address listed below.

if you have any comments about this page, good or bad, please don't hesitate to e-mail me about it at allred@westex.net


Comments