Korn - Make Me Bad Chords & Tabs

 

Make Me Bad Chords & Tabs

Korn Chords & Tabs

Version: 5 Type: Bass Tab 0 ratings
1 star 2 stars 3 stars 4 stars 5 stars
comments

Make Me Bad Bass Tab

   
-------------------------------------------------------------------------------
			     MAKE ME BAD - KoRn
-------------------------------------------------------------------------------

Tabbed By : KoRnKid89
e-mail: XblytheX89@aol.com

Tuning: ADGCF
  
  Intro pt. 2 (enter with drums):
    
    S   S S S S S S
F|-------------------|
C|-------------------|
G|-------------------|
D|-------------------|
A|--0h1-1-0-1-0-1-1--|
  (x8)

  Verse:
F|----------------------------|----------------------------|
C|----------------------------|----------------------------|
G|----------------------------|----------------------------|
D|--------11-----------11-----|--------10-----------10-----|
A|--9--9------9--9--9------9--|--8--8------8--8--8------8--|
  (x7)

F|----------------------------|----------------------------|
C|----------------------------|----------------------------|
G|----------------------------|----------------------------|
D|--------11-----------11-----|--------10-----------10\----|
A|--9--9------9--9--9------9--|--8--8------8--8--8---------|


  Choruses 1 and 2:
[ Tab from: http://www.guitartabs.cc/tabs/k/korn/make_me_bad_btab_ver_5.html ]
    P         S S  S  
F|----------------------|
C|----------------------|
G|----------------------|
D|----------------------|
A|--5--000000-0-3--1----|  (Chorus 1: x4, Chorus 2: x8) 


  Bridge pt. 1:
  (slap all)
F|----------|----------|
C|----------|----------|
G|----------|----------|
D|----------|----------|
A|--1--0-0--|--0--1-1--|


    S   S S SSS S S
F|-------------------|
C|-------------------|
G|-------------------|
D|-------------------|
A|--0h1-1-0-110-1-1--|
 

  Chorus 3, pt. 1:

    P         S S  S 
F|----------------------|
C|----------------------|
G|----------------------|
D|----------------------|
A|--5--000000-0-3--1----|
  (x4)
  
  Chorus 3, pt. 2:
  
    P   S  S  S P
F|----------------------|
C|----------------------|
G|----------------------|
D|----------------------|
A|--5---3--5--4-3----1--|
  (x4)


  Outro (slap all):
F|--------------------------|--------------------------|
C|--------------------------|--------------------------|
G|--------------------------|--------------------------|
D|--------------------------|--------------------------|
A|--3--3--5--3--3--3--5--3--|--2--2--4--2--2--2--4--2--|
  (Play for the rest of the song, which fades at the end.)



| P  pop
| S  slap
| /  slide up
| \  slide down
| h  hammer-on
| p  pull-off
| ~  vibrato
| +  harmonic
| x  Mute note
===============================================================================
Comments