Korn - Make Believe Chords & Tabs

 

Make Believe Chords & Tabs

Korn Chords & Tabs

Version: 2 Type: Tab 0 ratings
1 star 2 stars 3 stars 4 stars 5 stars
comments

Make Believe Tab

   
Band- Korn
Song- Make Believe
Album- Untouchables

Tuning: 1 Step Down (A,D,G,C,F,A,D)

VERSE: (guitar 1)
|----------12-12-12-12-12-1313131313----------15-15-|
|-10-10-10---------------------------11-11-11-------|
|---------------------------------------------------|
|---------------------------------------------------|
|---------------------------------------------------|
|---------------------------------------------------|
|---------------------------------------------------|

VERSE: (guitar 2)
|----------------|
|----------------|
|-12-11---10-9-7-|
|--X--X----X-X-X-|
|-10--9----8-7-5-|
|----------------|
|----------------|

BRIDGE: (guitar 1)
|------------|
|------------|
|------------|
|------------|
|-7-10---5-8-|
|-7-10---5-8-|
|-5--8---3-6-|

BRIDGE: (guitar 2)
|----------------|
|----------------|
|-12---/19-------|
|--X-------17-16-|
|-10-------------|
|----------------|
|----------------|
[ Tab from: http://www.guitartabs.cc/tabs/k/korn/make_believe_tab_ver_2.html ]
CHORUS: (guitar 1)
|-----------------------|
|-----------------------|
|-----------------------|
|-----------------------|
|-8--7------------------|
|-8--7--5-------4-------|
|-6--5----5-4-3---4-3-2-|

CHORUS: (guitar 2)
|----------------------16----|
|--------17------------------|
|-14-16-----16--14-16-----16-|
|----------------------------|
|----------------------------|
|----------------------------|
|----------------------------|

CHORUS FILL: (guitar 1)
|-----------------|
|-----------------|
|-----------------|
|-----------------|
|-----------------|
|-3-------2-------|
|---3-2-1---2-1-0-|

INTERLUDE: (guitar 1) (w/ effect)
|----------------------------|
|----------------------------|
|-9-11--14-13--9-10-11-14-13-|
|-X--X---X--X--X--X--X--X--X-|
|-7--9--12-11--7--8--9-12-11-|
|----------------------------|
|----------------------------|

INTERLUDE: (guitar 2)
|---------------------|
|---------------------|
|---------------------|
|---------------------|
|-3-5--8-7--3-4-5-8-7-|
|-3-5--8-7--3-4-5-8-7-|
|-1-3--6-5--1-2-3-6-5-|

OUTRO:
|---------------------------------|
|---------------------------------|
|---------------------------------|
|---------------------------------|
|---------------------------------|
|-5-------4-------3-------2-------|
|---5-4-3---4-3-2---3-2-1---2-1-0-|
Comments