Korn - Make Believe Chords & Tabs

 

Make Believe Chords & Tabs

Korn Chords & Tabs

Version: 1 Type: Tab 0 ratings
1 star 2 stars 3 stars 4 stars 5 stars
comments

Make Believe Tab

   
Artist: Korn
Song: Make Believe
Album: Untouchables
Everyone seems to hate this song but i actually like it and find it
very fun to play so i thought I'd make a tab for it since no one else
has. So to hell with you all.
Tuning: ADGCFAD (if you only have 6-strings tough cause even if you
detune this song has high parts you cant do without)
Some of this is from a tab book but i found mistakes (tab books are
usually only about 75% correct for everyone's info plus the untouchables
tab book doesnt tell you anything about the effects they use so I had
to figure that out myself)
[ Tab from: http://www.guitartabs.cc/tabs/k/korn/make_believe_tab.html ]
Intro/Verse
Clean with envelope filter(a funky wah thingy)
D--------------------12-12-13-13-13-----------15-15-
A---------------------------------------------------
F-14-14-14------------------------------------------
C---------------------------------------------------
G-----------12-12-12----------------13-13-13--------
there is another guitar part (the part head plays) but i havent
figured it out its not that cool though so it doesnt really matter
thats the main part up there
PreChorus gtr1 (munky)
w/distortion
C-2--5------3-
G-2--5---5--3-
D-0--3---5--1-
A--------3----
gtr2 (head)
not sure about this part play it with fuzz distortion on maximum gain
High
D-12---12-15-10--
Chorus gtr1 w/dist.
G-------7-------6-------
D-8--7--5-7-6-5-4-6-5-4-
A-6--5----5-4-3---4-3-2-
Chorus gtr2 w/dist. and some reverb
this is one of the coolest melodies korn has ever written I think
(the tab book version looks a LOT slower)
D----------12-------------------16--------------12----------19-------
A----12----------12-------17----------17-----15----------17----17----
F-14----14----14----14/16----16----16-----14-------14/16----------16-

PostChorus is just the last 8 power chorus of gtr1's part w/ both
guitars, and the outro is the same only the patern keeps descending
like this:
G-7-------6-------5-------4------- and then it repeats a few times.
D-5-7-6-5-4-6-5-4-3-5-4-3-2-4-3-2-
A---5-4-3---4-3-2---3-2-1---2-1-0-

PreBridge
Gtr1 plays this an gtr2 plays the same thing an octave higher
both guitars have that funky envelope filter on them w/ no distortion
D--------1--0-----------1--0-
A-1--3----------1--2-3-------

Bridge gtr 1 (heavy dist)
G--------3--2----------3--2-
D-3--5---1--0---3--4-5-1--0-
A-1--3----------1--2-3------
gtr 2 (more heavy dist)
F--------2--1----------2--1-
C-2--4---3--2---2--3-4-3--2-
G-3--5----------3--4-5------
thats all folks. 3:30 am its bedtime for me

for the dudes at this site, you guys have a jacked up thing that 
screws up my tabs, and maybe other people's (i havent looked). 
whenever you try and tab a downward slide (not that slash / but the
other one) it leaves it out. I made a PERFECT freak on a leash tab
and it got jacked up cause of the problem. A few of my other tabs
looked like crap in some parts as well. FIX IT!

Comments