Korn - Make Believe Chords & Tabs

 

Make Believe Chords & Tabs

Korn Chords & Tabs

Version: 1 Type: Bass Tab 0 ratings
1 star 2 stars 3 stars 4 stars 5 stars
comments

Make Believe Bass Tab

Band- Korn
Song- Make Believe
Album- Untouchables

Verse
G ----------------------------------|
D ----------------------------------|
A -4-7--10-9v--4-7--10-9v-----------|        x5
E ----------------------------------|
B ----------------------------------|

Pre-Chorus
G -------------------------|
D -------------------------|
A -------------------------|        x4
E -------------------------|
B -2--5--8--12-------------|
Chorus
G ---------------------------------------------|
D ---------------------------------------------|
A ---------------------------------------------|        x4
E ---------------------------------------------|
B -2--4-5-0-8-11--2--4-5-0-8-11----------------|

Verse
G ----------------------------------|
D ----------------------------------|
A -4-7--10-9v--4-7--10-9v-----------|        x5
E ----------------------------------|
B ----------------------------------|

Pre-Chorus
G -------------------------|
D -------------------------|
A -------------------------|        x4
E -------------------------|
B -2--5--8--12-------------|
[ Tab from: http://www.guitartabs.cc/tabs/k/korn/make_believe_btab.html ]
Chorus
G ---------------------------------------------|
D ---------------------------------------------|
A ---------------------------------------------|        x4
E ---------------------------------------------|
B -2--4-5-0-8-11--2--4-5-0-8-11----------------|

...And the *** seems to follow...
G ------------------------------|
D ------------------------------|
A ------------------------------|
D ------------------------------|
B -0-2-3-2-0-2-3-2-0-2-3--------|

Quiet bit
G --------------------|
D --------------------|
A -4-7--10-9----------|        x4
E --------------------|
B --------------------|

Louder bit
G ---------------------|
D ---------------------|
A ---------------------|        x8
E ---------------------|
B -2-5--8-7------------|

Chorus
G ---------------------------------------------|
D ---------------------------------------------|
A ---------------------------------------------|        x8
E ---------------------------------------------|
B -2--4-5-0-8-11--2--4-5-0-8-11----------------|

...And the *** seems to follow...
G --------------------------------------|
D --------------------------------------|
A --------------------------------------|        x2
D --------------------------------------|
B -0-2-3-2-0-2-3-2-0-2-3----------------|
Comments