Korn - Lowrider Chords & Tabs

 

Lowrider Chords & Tabs

Korn Chords & Tabs

Version: 2 Type: Bass Tab 0 ratings
1 star 2 stars 3 stars 4 stars 5 stars
comments

Lowrider Bass Tab

From: rageman@pop.erols.com
Subject: Lowrider - KoRn

Main Riff
[ Tab from: http://www.guitartabs.cc/tabs/k/korn/lowrider_btab_ver_2.html ]
G-----------------------
D------------0---0-3-5-5
A------2--3-------------
E-3-3-------------------

Ocasionally

G--------------------
D------------3-5-----
A------3-5--------3-5
E-3-5----------------


Comments