Korn - Lost Chords & Tabs

 

Lost Chords & Tabs

Korn Chords & Tabs

Version: 2 Type: Tab 0 ratings
1 star 2 stars 3 stars 4 stars 5 stars
comments

Lost Tab

   
Song: "Lost"
Artist: Korn
Album: Life Is Peachy
Tabled By: Alex Pérez
Tuning: 1 Step Down (A,D,G,C,F,A,D)


Intro (Guitar 1)  0:00
|-----------------------------------------|
|-----------------------------------------|
|-----------------------------------------|
|--0~--------0~--------0~--------0~-------|  Control Volume
|--4~--------4~--------4~--------4~-------|
|-----------------------------------------|
|-----------------------------------------|

Chorus (Guitar 1 & Guitar 2)  0:08   
|----------------|
|----------------|   
|----------------|   
|-------------0--|   .--> pm
|-------------4--|
|-555\444\333----|
|-333\222\111----|   
  ...........     



Verse (Guitar 1)  0:28
|------|  
|------|
|------| 
|--0~--|  Control Volume
|--4~--|
|------|
|------|

Chorus (Guitar 1 & Guitar 2)  0:44
|----------------|
|----------------|
|----------------|
|-------------0--|   .--> pm
|-------------4--|
|-555\444\333----|
|-333\222\111----|
  ...........     



Verse (Guitar 1)  0:55
|------|
|------|
|------| 
|--0~--|  Control Volume
|--4~--|
|------|
|------|

Chorus (Guitar 1 & Guitar 2)  1:11
|----------------|
|----------------|
|----------------|
|-------------0--|   .--> pm
|-------------4--|
|-555\444\333----|
|-333\222\111----|
  ...........     

[ Tab from: http://www.guitartabs.cc/tabs/k/korn/lost_tab_ver_2.html ]
Interlude (Guitar 1)  1:29
|-----------------------------------------|
|-----------------------------------------|
|-----------------------------------------|
|-----------------------------------------|
|-----------------------------------------|
|-3----3-----3--3----333-----3----3-------|
|--222---222--2--222-----222--222--222----|


Chorus (Guitar 2)  1:38
|-----------------------------------------|             
|-----------------------------------------|
|-----------------------------------------|
|-----------------------------------------|    .--> pm   
|-----------------------------------------|
|-555\444\333----555\444\333--------------|
|-333\222\111----333\222\111--------------|
  ...........    ........... 

Guitar 1
|-------------19-|
|----------------|
|----------------|
|----------------|
|----------------|
|----------------|
|----------------|



Verse (Guitar 1)  2:00
|------|
|------|
|------| 
|--0~--|  Control Volume
|--4~--|
|------|
|------|

Chorus (Guitar 1 & Guitar 2)  2:16
|----------------|
|----------------|
|----------------|
|-------------0--|   .--> pm
|-------------4--|
|-555\444\333----|
|-333\222\111----|
  ...........     


Outro (Guitar 1 & Guitar 2)  2:34
|---------------|
|---------------|
|---------------|
|---------------| .--> pm
|---------------|
|-555\444\333---|
|-333\222\111---|
  ...........
Comments