Korn - Lets Get This Party Started Chords & Tabs

 

Lets Get This Party Started Chords & Tabs

Korn Chords & Tabs

Version: 2 Type: Tab 0 ratings
1 star 2 stars 3 stars 4 stars 5 stars
comments

Lets Get This Party Started Tab

   
Intro -

---------------------------------------------
------8-----------8--------------------------
----11--11-----11----11------11----11--------
--9--------9------------9-------9------------
---------------------------------------------
---------------------------------------------
---------------------------------------------

---------------------------------------------
------8-----------8--------------------------
----11--11-----11----11------11---11---------
--8--------8------------8-------8------------
---------------------------------------------
---------------------------------------------
---------------------------------------------


-------------------14------------------------
--15-----14-----------------15--------14-----
---------------------------------------------
---------------------------------------------
---------------------------------------------
---------------------------------------------
---------------------------------------------

---------14------14------------14------------
-----15---------------15-------------15------
---------------------------------------------
---------------------------------------------
---------------------------------------------
---------------------------------------------
---------------------------------------------

Pre-Chorus

---------------------------------------------
--12-----14---12-----------------------------
---------------------12----------------------
---9-----11----9-----------------------------
---------------------10----------------------
---------------------------------------------
---------------------------------------------

With Distorion
---------------------------------------------
---------------------------------------------
-----------------------------0---------------
-------2----------------7--------------------
--2----2-----3-----8-------------------------
--2----0-----3-----8-------------------------
--0----------1-----6-------------------------


Riff B - B5, A5, C5, F

[ Tab from: http://www.guitartabs.cc/tabs/k/korn/lets_get_this_party_started_tab_ver_2.html ]
Riff C
--------------------------------------------
--13-----12--------------------------11-----
--------------------11------10--------------
--10-----9----------------------------8-----
---------------------9-------8--------------
--------------------------------------------
--------------------------------------------

Repeat above x2

---------------------------------------------
---------------------------------------------
---------------------------------------------
--7--7--7--6--6--6--6------------------8-----
------------------------9--9--9--8--8--------
--8--8--8--7--7--7--7------------------5-----
------------------------7--7--7--6--6--------

---------------------------------------------
--13-----12-----------------------11---------
------------------11-----10------------------
--10-----9-------------------------8---------
------------------9-------8------------------
---------------------------------------------
---------------------------------------------

----------------------------------------------
----------------------------------------------
----------------------------------------------
--7--7---7--6---6---6---6--------------------8
----------------------------9---9---9--8--8---
--8--8---8--7---7---7---7--------------------6
----------------------------7---7---7--6--6---

---------------------------------------------
---------------------------------------------
---------------------------------------------
---------------------------------------------
---------------------------------------------
----------0-----------2---------1------------
----1----------------------------------------

Outro

------------------------12-----------------12----
---------------------------12-----12----12----12-
-------------------------------14----14----------
-------------------------------------------------
-------------------------------------------------
-------------2------1----------------------------
--1----0-----------------------------------------

**From the OFFICIAL 'Issues' tab book.. so no bitching at me for it being wrong because 
it isn't (if you think it is then play something easier dumbass).. played on a 7 string 
in drop D tuning**
Comments