Korn - Lets Do This Now Chords & Tabs

 

Lets Do This Now Chords & Tabs

Korn Chords & Tabs

Version: 2 Type: Tab 0 ratings
1 star 2 stars 3 stars 4 stars 5 stars
comments

Lets Do This Now Tab

   
alright i'm not quite sure about the verse part. this is how i play it. suggestions are welcome  

badmagick@bluebottle.com

Drop Bb tuning (Bb F Bb D# G C)

\ = slide down

Intro/Chorus

C |------------------------------------------------------------|
G |------------------------------------------------------------|
D#|------------------------------------------------------------|
Bb|--8\--0-0-0--0--6\--0-0-5\--0--8\--0-0-0--0--6\--0-0-5\--0--|
F |--8\--0-0-0--0--6\--0-0-5\--0--8\--0-0-0--0--6\--0-0-5\--0--|
Bb|--8\--0-0-0--0--6\--0-0-5\--0--8\--0-0-0--0--6\--0-0-5\--0--|

C |------------------------------------------------------------|
G |------------------------------------------------------------|
D#|------------------------------------------------------------|
Bb|--8\--0-0-0--0--6\--0-0-5\--0--8\--0-0-0--0--6\--0-0-5------|
F |--8\--0-0-0--0--6\--0-0-5\--0--8\--0-0-0--0--6\--0-0-5------|
Bb|--8\--0-0-0--0--6\--0-0-5\--0--8\--0-0-0--0--6\--0-0-5------|

Verse

C |------------------------------------------------------------|
G |------------------------------------------------------------|
D#|------------------------------------------------------------|
Bb|--3--3--3--3--3----------3--3--3--3--3\--1--1--1------------|
F |--3--3--3--3--3----------3--3--3--3--3\--1--1--1------------|
Bb|--3--3--3--3--3----------3--3--3--3--3\--1--1--1------------|

Pre Chorus
[ Tab from: http://www.guitartabs.cc/tabs/k/korn/lets_do_this_now_tab_ver_2.html ]
C |------------------------------------------------------------|
G |------------------------------------------------------------|
D#|------------------------------------------------------------|
Bb|--1--1--1--1--1----------1--1--1--1--0--0-------------------|
F |--1--1--1--1--1----------1--1--1--1--0--0-------------------|
Bb|--1--1--1--1--1----------1--1--1--1--0--0-------------------|

Chorus

Verse

Pre Chorus

Chorus

Bridge

C |--------------------------------------------------|
G |--------------------------------------------------|
D#|--------7-----------7-----------8-----------8-----|
Bb|--5--5-----5--5--5-----5--6--6-----6--6--6-----6--|
F |--------------------------------------------------|
Bb|--------------------------------------------------| 

C |-------------------------------------------------|
G |-------------------------------------------------|
D#|-------------------------------------------------|
Bb|--5----5--8-----8--7--8--7--6----6--6--6---------|
F |--5----5--8-----8--7--8--7--6----6--6--6---------|
Bb|--5----5--8-----8--7--8--7--6----6--6--6---------|

Post Bridge (Bass guitar)

D#|--------------------------------------------------------------|
Bb|--------------------------------------------------------------|
F |--------------------------------------------------------------|
Bb|--8--0-----------8--0-----------8--0-----------8--0-----------|

then back to the chorus and thats it. korn still rocks!
Comments